Beatles - Don't Bother Me Chords & Tabs

 

Don't Bother Me Chords & Tabs

Beatles Chords & Tabs

Version: 1 Type: Tab 0 ratings
1 star 2 stars 3 stars 4 stars 5 stars
comments

Don't Bother Me Tab

   
#----------------------------------PLEASE NOTE---------------------------------#
#This file is the author's own work and represents their interpretation of the #
#song. You may only use this file for private study, scholarship, or research. #
#------------------------------------------------------------------------------#

TAB: Don't Bother Me 
MUSIC BY: The Beatles (From the With the Beatles album)  
TABBED BY: The Beatles Central Team (jpgr_beatles@yahoo.com) 
 
 
Intro: 
 
   D 
E|---------------------------------|-------------------------------- 
B|---------------------------------|-------------------------------- 
G|---------------------------------|-------------------------------- 
D|-0---------------4---------------|-2---------------0-------------- 
A|---------------------------------|-------------------------------- 
E|---------------------------------|-------------------------------- 
   ^       ^       ^       ^         ^       ^       ^       ^   
[ Tab from: http://www.guitartabs.cc/tabs/b/beatles/dont_bother_me_tab.html ]
Solo: 
                                     B7 
E|-7-------------------------------|-------------------------------- 
B|-8-------------------------------|---------------------4---------- 
G|-9---------------0---2-------2---|-/4------4------0h4------------- 
D|-9-------2-----------------------|-------------------------------- 
A|-7-------------------------------|-------------------------------- 
E|---------------------------------|-------------------------------- 
   ^       ^       ^       ^         ^       ^       ^       ^       
   A7                                G7 
E|---------3---5---5b7-5---3-------|-------------------------------- 
B|-----5---------------------------|-----5-------5---5--3h5--3------ 
G|---------------------------------|-------------------------------- 
D|---------------------------------|-------------------------------- 
A|---------------------------------|-------------------------------- 
E|---------------------------------|-------------------------------- 
   ^       ^       ^       ^         ^       ^       ^       ^     
   E7                                B7 
E|---------------------------------|-------------------------------- 
B|---------------------------------|---------------------3------3--- 
G|-4---------------0---2-------2---|-/4------4---2---4-------------- 
D|-------------2-------------------|-------------------------------- 
A|---------------------------------|-------------------------------- 
E|---------------------------------|-------------------------------- 
   ^       ^       ^       ^         ^       ^       ^       ^     
   A7              D                 G  
E|---------------------------------|-------------------------------- 
B|-3/5-----5-------5p3-------------|-------------------------------- 
G|---------------------4-------2---|-4-------4-------4\2------------ 
D|---------------------------------|-------------------------5-----2 
A|---------------------------------|-------------------------------- 
E|---------------------------------|--------------------------------   
Comments