Beatles - Do You Want To Know A Secret Chords & Tabs

 

Do You Want To Know A Secret Chords & Tabs

Beatles Chords & Tabs

Version: 3 Type: Bass Tab 0 ratings
1 star 2 stars 3 stars 4 stars 5 stars
comments

Do You Want To Know A Secret Bass Tab

DO YOU WANT TO KNOW A SECRET

Written by John Lennon

INTRO

G|---------------------------------|---------------------------------|
D|---------------------------------|---------------------------------|
A|---------------------------------|---------------------------------|
E|---------------------------------|---------------------------------|

G|---------------------------------|-----------------4---------------|
D|---------------------------------|---------------------------------|
A|---------------------------------|---------------------------------|
E|---------------------------------|---------------------------------|

G|---------------------------------|
D|---------------------------------|
A|---------------------------------|
E|---------------------------------|

VERSE

G|---------------------------------|-----------------4---------------|
D|-----------------6-------5-------|-4-----------4-------7---6---4---|
A|-7-----------7-------------------|---------------------------------|
E|---------------------------------|---------------------------------|

G|---------------------------------|-----------------4---------------|
D|-----------------6-------5-------|-4-----------4-------7---6---4---|
A|-7-----------7-------------------|---------------------------------|
E|---------------------------------|---------------------------------|

G|---------------------------------|-----------------5---------------|
D|-----------------6-------5-------|-4-----------4-------------------|
A|-7-----------7-------------------|---------------------------------|
E|---------------------------------|---------------------------------|

G|---------------------------------|-----------------4---------------|
D|---------6---7---6-------5-------|-4-------4-----------7---6---4---|
A|-7-------------------------------|---------------------------------|
E|---------------------------------|---------------------------------|

G|---------------------------------|-----------------4---------------|
D|-----------------6-------5-------|-4-------4-----------7---6---4---|
A|-7-------7-----------------------|---------------------------------|
E|---------------------------------|---------------------------------|

G|---------------------------------|-4-----------4-----------4-------|
D|-7-----------7-----------7-------|---------------------------------|
A|---------------------------------|---------------------------------|
E|---------------------------------|---------------------------------|

G|-6-------------------------------|---------6---5---4---------------|
D|---------------------------------|-4-------------------7---6---4---|
A|-----4---4---4---4---4---4---4---|---------------------------------|
E|---------------------------------|---------------------------------|

VERSE

G|---------------------------------|-------------6---4---------------|
D|-----------------6-------5-------|-4-------4-----------7---6---4---|
A|-7-------7-----------------------|---------------------------------|
E|---------------------------------|---------------------------------|

G|---------------------------------|-----------------4---------------|
D|-----------------6-------5-------|-4-------4-----------------------|
A|-7-------7-----------------------|-----------------------------6---|
E|---------------------------------|-------------------------7-------|

G|---------------------------------|-----------------5-------5-------|
D|-----------------6-------5-------|-4-----------4-------------------|
A|-7-------7-----------------------|---------------------------------|
E|---------------------------------|---------------------------------|

G|---------------------------------|-----------------4-------4-------|
D|---------6---7---6-------5-------|-4-------------------------------|
A|-7-------------------------------|---------------------------------|
E|---------------------------------|---------------------------------|
[ Tab from: http://www.guitartabs.cc/tabs/b/beatles/do_you_want_to_know_a_secret_btab_ver_3.html ]
G|---------------------------------|-----------------4---------------|
D|---------6---7---6-------5-------|-4-------4-----------7---6-------|
A|-7-------------------------------|-----------------------------7---|
E|---------------------------------|---------------------------------|

G|---------------------------------|-4-----------4-----------4-------|
D|-7-----------7-----------6---7---|---------------------------------|
A|---------------------------------|---------------------------------|
E|---------------------------------|---------------------------------|

G|-6-------------------------------|-------------6---5---4-----------|
D|---------------------------------|-4-------4---------------7---4---|
A|-----4---4---4---4---4---4---4---|---------------------------------|
E|---------------------------------|---------------------------------|

BRIDGE

G|---------------------------------|-6-----------7---4---------------|
D|-7-----------6---4-------4-------|---------------------------------|
A|---------------------------------|---------------------------------|
E|---------------------------------|---------------------------------|

G|---------------------------------|-6-----------7---4-----------4---|
D|-7-------6-------4-------4-------|---------------------------------|
A|---------------------------------|---------------------------------|
E|---------------------------------|---------------------------------|

G|---------------------------------|-4---4---------------------------|
D|-4-----------4---4-----------4---|---------7---7---6---6---4-------|
A|---------------------------------|---------------------------------|
E|---------------------------------|-----------------------------7---|

VERSE

G|---------------------------------|-------------6---4---------------|
D|---------6---7---6-------5-------|-4-------------------7---6---4---|
A|-7-------------------------------|---------------------------------|
E|---------------------------------|---------------------------------|

G|---------------------------------|-----------------4---------------|
D|---------6---7---6-------5-------|-4-----------4-------7---6---4---|
A|-7-------------------------------|---------------------------------|
E|---------------------------------|---------------------------------|

G|---------------------------------|-----------------5-------5-------|
D|---------6---7---6-------5-------|-4-----------4-------------------|
A|-7-------------------------------|---------------------------------|
E|---------------------------------|-----------------------------7---|

G|---------------------------------|-----------------4---------------|
D|---------6---7---6-------5-------|-4-------4-----------7---6---4---|
A|-7-------------------------------|---------------------------------|
E|---------------------------------|---------------------------------|

G|---------------------------------|-----------------4---------------|
D|---------6---7---6-------5-------|-4-------4-----------7---6-------|
A|-7-------------------------------|-----------------------------7---|
E|---------------------------------|---------------------------------|

G|---------------------------------|---------------------------------|
D|-7---7---7---6---7---6---7---7---|-9---9---9---9---9---7---6---4---|
A|---------------------------------|---------------------------------|
E|---------------------------------|---------------------------------|

G|-4/6-----4/6-----4/6-----4/6-----|---------6---5---4---------------|
D|---------------------------------|-4-------------------7---6---4---|
A|---------------------------------|---------------------------------|
E|---------------------------------|---------------------------------|

G|-6-------------------------------|-4-------------------------------|
D|---------------------------------|---------7-------6-------4-------|
A|-----4---4---4---4---4---4---4---|---------------------------------|
E|---------------------------------|---------------------------------|

G|-6-------------------------------|---------------------------------|
D|---------------------------------|---------------------------------|
A|-----4---4---4---4---4---4---4---|-2-------0-----------------------|
E|---------------------------------|-----------------4-------2-------|
                                                             FADE OUT
Comments