Beatles - Dizzy Miss Lizzie Chords & Tabs

 

Dizzy Miss Lizzie Chords & Tabs

Beatles Chords & Tabs

Version: 1 Type: Tab 0 ratings
1 star 2 stars 3 stars 4 stars 5 stars
comments

Dizzy Miss Lizzie Tab

   
The Beatles.
Dizzy miss lizzie.
Questions or comments?--->mushbo@aol.com
Here this should get you started.............



      (bend it good)        A         
e|------------------------------------------|
B|------------------------------------------|
G|-4(5)-(5)-(5)-(5)-2-4(5)------------------|riff 1 (play 2 times)
D|-------------------------2-2-4-2-2-2-4-2-2| 
A|-------------------------0-0-0-0-0-0-0-0-0|
E|------------------------------------------|

[ Tab from: http://www.guitartabs.cc/tabs/b/beatles/dizzy_miss_lizzie_tab.html ]
                            D               
E|------------------------------------------|
B|------------------------------------------|
G|-4(5)-(5)-(5)-(5)-2-4(5)-2-2-4-2-2-2-4-2-2|riff 2 (play 1 time then play part 1 once more 
D|-------------------------0-0-0-0-0-0-0-0-0|
A|------------------------------------------|
E|------------------------------------------|


E|------------------------------------------|
B|------------------------------------------|
G|-4(5)-(5)-(5)-(5)-2-4(5)-4-4-6-4-4-4-6-4-4|riff 3 (play 1 time)
D|-------------------------2-2-2-2-2-2-2-2-2|
A|------------------------------------------|
{|------------------------------------------|



The rest?  Listen to the song.
Comments