Beatles - Dear Prudence Chords & Tabs

 

Dear Prudence Chords & Tabs

Beatles Chords & Tabs

Version: 1 Type: Tab 0 ratings
1 star 2 stars 3 stars 4 stars 5 stars
comments

Dear Prudence Tab

#----------------------------------PLEASE NOTE---------------------------------#
#This file is the author's own work and represents their interpretation of the #
#song. You may only use this file for private study, scholarship, or research. #
#------------------------------------------------------------------------------#

Date: Fri, 22 Nov 2002 18:15:04 +1100
From: stephen constantine 
Subject: b/beatles/dear_prudence.tab

The Beatles
Dear Prudence


TABBED BY STEPHEN CONSTANTINE (steveconst@hotmail.com)
  RANDY ROBB (rrobb@msu.edu) Date: Wed, 09 Mar 1994  10:38 est

NOVEMBER 22, 2002

THIS TAB IS ALL OUR OWN WORK


NOTE:DROP D TUNING (TUNE THE LOWER E STRING DOWN TO A D)
THE TAB REFERS TO THE NOTES TO BE PLAYED, BUT NOT IN
THE ORDER


PLAY THE NOTES IN THIS ORDER (NOTE: THIS IS JUST AN EXAMPLE!)

E--2------------
B----------3----
G------2--------
D----0-------0--
A--0------------
D--------0------



TAB:

INTRO + FADE OUT

--14-12-10-8--7--5--3--3--
--12-10-10-8--8--7--5--5--
--14-12-11-9--7--7--5--4--
--0--0--0--0--0--0--0--0--
--0--0--0--0--0--0--0--0--
--0--0--0--0--0--0--0--0--


RECURRING MELODY:

--2--2--2--2--2--
--3--3--3--3--3--
--2--2--2--2--2--
--0--0--0--0--0--
--0--3--2--1--0--
--0--0--0--0--0--


'WON'T YOU COME OUT...'

--0--3--2--
--1--0--3--
--0--0--2--
--2--0--0--
--3--2--0--
--0--0--0--


'LOOK AROUND...'

--1--4--3--
--1--4--3--
--2--5--4--
--0--0--0--
--0--0--0--
--0--0--0--



LEAD GUITAR:
[ Tab from: http://www.guitartabs.cc/tabs/b/beatles/dear_prudence_tab.html ]
------------------------------------------
--7h8-7---7h8-7-7h8-7---7h8-7-7h8-7-------
--------7-------------7-------------7-----
------------------------------------------
------------------------------------------
------------------------------------------


------------------------------------------
---7h8-7---7h8-7---7h8---7h8-7---6-5------
---------7-------7-----7-------7----------
------------------------------------------
------------------------------------------
------------------------------------------


-----------------3-5-5b8-5----------------
---7h8-7---7-5-5-----------7--------------
---------7--------------------------------
------------------------------------------
------------------------------------------
------------------------------------------


------------10-12s10----------------------
--7s8-10-12----------10-------------------
------------------------------------------
------------------------------------------
------------------------------------------
------------------------------------------ x4


---------10---------10-14----10s12-14-17--
--7s8-10----7-10s12-------10--------------
------------------------------------------
------------------------------------------
------------------------------------------
------------------------------------------


--12-13s14-16-22-22-----------------------
------------------------------------------
------------------------------------------
------------------------------------------
------------------------------------------
------------------------------------------

ENJOY!
Comments