Beatles - Day Tripper Chords & Tabs

 

Day Tripper Chords & Tabs

Beatles Chords & Tabs

Version: 7 Type: Tab 0 ratings
1 star 2 stars 3 stars 4 stars 5 stars
comments

Day Tripper Tab

   
Day Tripper by:  The Beatles

Tab by: Aaron Meredith

This song is great for begginers. Please rate and comment.

 ~ = let ring
/ = slide up
\ = slide down
b = bend
p = pull-off
h = hammer-on

Intro:
e|----------------------------------|
B|----------------------------------|
G|----------------------------------|x5
D|-------------2-0~-----4-----0-2---|
A|----------2---------2-----2-------|
E|-0~--3-4--------------------------|

Verse:
e|----------------------------------|
B|----------------------------------|
G|----------------------------------|x2
D|-------------2-0~-----4-----0-2---|
A|----------2---------2-----2-------|
E|-0~--3-4--------------------------|

e|----------------------------------|
B|----------------------------------|
G|-------------2-0~-----4-----0-2---|
D|----------2---------2-----2-------|
A|-0~--3-4--------------------------|
E|----------------------------------|

e|----------------------------------|
B|----------------------------------|
G|----------------------------------|
D|-------------2-0~-----4-----0-2---|
A|----------2---------2-----2-------|
E|-0~--3-4--------------------------|
[ Tab from: http://www.guitartabs.cc/tabs/b/beatles/day_tripper_tab_ver_7.html ]
Chorus: (guitar 1) palm-mute
e|-------------------------------------------------------|
B|-------------------------------------------------------|
G|-------------------------------------------------------|
D|--4~---------------------------------6-(x8)--4-(x8)----|
A|--4~----444444-(x4)--7-(x8)--6-(x8)--4-------2---------|
E|--0-2h--222222-------5-------4-------------------------|

Chorus: (guitar 2)
e|--2---------5--5--5--5---4--4--4--4---x--x--x--x---x--x--x--x---|
B|--2---------8--8--8--8---7--7--7--7---6--6--6--6---4--4--4--4---|
G|--3-(x16)---6--6--6--6---5--5--5--5---6--6--6--6---4--4--4--4---|
D|--4---------5--5--5--5---4--4--4--4---6--6--6--6---4--4--4--4---|
A|--4---------7--7--7--7---6--6--6--6---4--4--4--4---2--2--2--2---|
E|--2---------5--5--5--5---4--4--4--4---x--x--x--x---x--x--x--x---|


****REPEAT VERSE & CHORUS AS NEEDED****


Pre-Solo:
E|---------------------------------------|
B|----------------------2~---------------|
G|-4~---------4--2~------------2--4------|x3
D|-4~-------4---------4-----4------------|
A|-2~--5-/6------------------------------|
E|---------------------------------------|


Solo:
e|--------------------------5~---------|
B|-------5-3p-----3----5b~------b5-----|
G|-4---4------4------------------------|
D|-------------------------------------|
A|-------------------------------------|
E|-------------------------------------|
                                                            (added)
e -----------10-------10---12-12b-12--10---------|------------11~--11~\--|
B -12~--12~-------12-----------------------12~---|--12~--12~--12~--12~\--|
G -----------------------------------------------|-----------------------|
D -----------------------------------------------|-----------------------|
A -----------------------------------------------|-----------------------|
E -----------------------------------------------|-----------------------|
Comments