Beatles - Day Tripper Chords & Tabs

 

Day Tripper Chords & Tabs

Beatles Chords & Tabs

Version: 1 Type: Tab 0 ratings
1 star 2 stars 3 stars 4 stars 5 stars
comments

Day Tripper Tab

#----------------------------------PLEASE NOTE---------------------------------#
#This file is the author's own work and represents their interpretation of the #
#song. You may only use this file for private study, scholarship, or research. #
#------------------------------------------------------------------------------##

The Beatles: Day Tripper

Intro
Moderate Rock =138
Slight distortion

Play 5 times
E---------------------------------------------------------------------------------
B---------------------------------------------------------------------------------
G---------------------------------------------------------------------------------
D--------------------2---0-----------4-----------0---2--------------------------
A---------------2----------------2-----------2-----------------------------------
E--0---3---4---------------------------------------------------------------------


E-----------------------------------------------------------------------------------------
B-----------------------------------------------------------------------------------------
G-----------------------------------------------------------------------------------------
D----------------------2---0-----------4-----------0---2------------------------2---0--
A-----------------2----------------2-----------2----------------------------2------------
E-0------3---4-----------------------------------------------0------3---4---------------


E---------------------------------------------------------------------------------------------
B---------------------------------------------------------------------------------------------
G-----------------------------------------------------------2---0-----------4--------0---2--
D-(0)-----------4-----------0---2--------------------2----------------2--------2-----------
A-----------2-----------2------------0------3---4-------------------------------------------
E----------------------------------------------------------------------------------------------


E--------------------------------------------------------------------------
B--------------------------------------------------------------------------
G--------------------------------------------------------------------------
D----------------------2---0--------4--------0---2----------------------
A-----------------2-------------2--------2-------------------------------
E-0------3---4------------------------------------------------------------

Chorus
E--------------------------------------------------------------------------
B--------------------------------------------------------------------------
G--------------------------------------------------------------------------
D--------------------------------------------------------------------------
A-4--4--4--4--4--4--4--4--4--4--4--4--4----- 4--4--4---------------
E-2--2--2--2--2--2--2--2--2--2--2--2---0h2--2--2--2---------------
Palm mute
[ Tab from: http://www.guitartabs.cc/tabs/b/beatles/day_tripper_tab.html ]
E--------------------------------------------------------------------------
B--------------------------------------------------------------------------
G--------------------------------------------------------------------------
D--------------------------------------------------------------------------
A-4--4--4--4--4--4--4--4--4--4--4--4--4----- 4--4------------------
E-2--2--2--2--2--2--2--2--2--2--2--2---0h2--2--2------------------
Palm mute 
 


E-5----5----5--5--5--5--4----4----4--4--4--4-----------------------------
B-5----5----5--5--5--5--4----4----4--4--4--4--6----6----6--6--6--6----
G-6----6----6--6--6--6--5----5----5--5--5--5--6----6----6--6--6--6----
D-5----5----5--5--5--5--4----4----4--4--4--4--6----6----6--6--6--6----
A-7----7----7--7--7--7--6----6----6--6--6--6--4----4----4--4--4--4----
E-5----5----5--5--5--5--4----4----4--4--4--4-----------------------------


E--------------------------------------------------------------------------
B-4----4----4--4--4--4--4----------------------------------------------
G-4----4----4--4--4--4--4----------------------------------------------
D-4----4----4--4--4--4--4-------------------------2---0---------------
A-2----2----2--2--2--2--2--------------------2------------------------
E-------------------------------0------3---4-----------------------------


E---------------------------------------------------------------------------------
B---------------------------------------------------------------------------------
G---------------------------------------------------------------------------------
D-(0)------4--------0--2-------------------2--0--------4-------0--2-----------
A-------2--------2----------------------2------------2-------2------------------
E----------------------------0----3--4-------------------------------------------

Repeat through the chords

Solo

E-----------------------------------------------------------------------------------
B-----------------------------------------------------------------------------------
G----------------4--------4--7--------------4--------------------------------------------
D------------4------7------------4--7-----------------------------------------------------
A-----5h6-------------------------------------------------------------------------------
E--7------------------------------------------------------------------------------------
Play three times


                   Hold bend           P.M---->
E------------------------------------------------------------10-------10--12---------
B-------------------------10---------------0--0--12--12-------12-------------------
G--------7------7--9b-----------9---(9)----------------------------------------------
D-9--9------9-------------------------------------------------------------------------
A------------------------------------------------------------------------------------
E--------------------------------------------------------------------------------------


E-12b--12b---(12)--10------------------------------------------------------------
B---------------------------12--0------0------0-------0----------------------------
G--------------------------------4------4------4-------4----------------------------
D-----------------------------------------------------------------------------------
A------------------------------------------------------------------------------------
E--------------------------------------------------------------------------------------


Then play the main riff several more times and that’s the song

Peace,
Lance Doughman
Aquamoose28@aol.com
Comments