Beatles - Day Tripper Chords & Tabs

 

Day Tripper Chords & Tabs

Beatles Chords & Tabs

Version: 8 Type: Chords 0 ratings
1 star 2 stars 3 stars 4 stars 5 stars
comments

Day Tripper Chords

   
#-------------------------------PLEASE NOTE-------------------------------------#
# This file is the author's own work and represents their interpretation of the #
# song. You may only use this file for private study, scholarship, or research. #
#-------------------------------------------------------------------------------#
Day Tripper chords
The Beatles

e|--------------------------|
B|--------------------------|
G|--------------------------|
D|---------2-0----4---0-2---|
A|-------2-----2----2-------|
E|-0-3-4--------------------| 4x


E7
Got a good reason, for taking the easy way out
A7                     E7
Got a good reason, for taking the easy way out
          F#
She was a day tripper, one way ticket yeah
           A  G#           C                Bb
It took me so long to find out, and I found out
[ Tab from: http://www.guitartabs.cc/tabs/b/beatles/day_tripper_crd_ver_8.html ]
e|--------------------------|
B|--------------------------|
G|--------------------------|
D|---------2-0----4---0-2---|
A|-------2-----2----2-------|
E|-0-3-4--------------------| 
 
E7 
She's a big teaser, she took me half the way there
A7                  E7
She's a big teaser, she took me half the way there
        F#
She's a day tripper, one way ticket, yeah
           A  G#           C                Bb
It took me so long to find out, and I found out

e|--------------------------|
B|--------------------------|
G|--------------------------|
D|---------2-0----4---0-2---|
A|-------2-----2----2-------|
E|-0-3-4--------------------|

E7 
Tried to please her, but she only played one night stands
A7                       E7
Tried to please her, but she only played one night stands
          F#
She was a day tripper, Sunday driver, yeah
           A  G#           C                Bb
It took me so long to find out, and I found out

e|--------------------------|
B|--------------------------|
G|--------------------------|
D|---------2-0----4---0-2---|
A|-------2-----2----2-------|
E|-0-3-4--------------------|

Set8

http://sites.google.com/site/guitarmusicchordsandlyrics/
Comments