Beatles - Day Tripper Chords & Tabs

 

Day Tripper Chords & Tabs

Beatles Chords & Tabs

Version: 4 Type: Bass Tab 0 ratings
1 star 2 stars 3 stars 4 stars 5 stars
comments

Day Tripper Bass Tab

How come no one tabbed this?

               I AM THE ANTIPOP!

Main Riff.
Same octave as guitar.
G----------------------------------------------------------------|
D--------------------14---12---------16----------12----14--------|
A------------------14---------14--------14-----------------------|
E---12-----15-16-------------------------------------------------|
[ Tab from: http://www.guitartabs.cc/tabs/b/beatles/day_tripper_btab_ver_4.html ]
G-------------------14---12---------16----------12----14--------|
D-----------------14---------14--------14-----------------------|
A---12-----15-16------------------------------------------------|
E---------------------------------------------------------------|

Chorus

G---------------------------------------------------------------|
D---------------------------------------------------------------|
A------0000-1--222222-------------------------------------------|
E---------------------------------------------------------------|


Cool song.
Comments