Beatles - Day Tripper Chords & Tabs

 

Day Tripper Chords & Tabs

Beatles Chords & Tabs

Version: 2 Type: Bass Tab 1 rating
1 star 2 stars 3 stars 4 stars 5 stars
comments

Day Tripper Bass Tab

   
Day Tripper
The Beatles

Timing is kinda tricky, so I wrote it exactly.

Main Riff:
   q.  q  e e e q  e q   e e e
G|------------9-7----11----7-9-|
D|-----5--6-9------9-----9-----|
A|-7---------------------------|
E|-----------------------------|

Riff 1:
   q.  q  e e e q  e  q  e e e
G|------------2-0----4----0-2-|
D|----------2------2----2-----|
A|-0---3--4-------------------|
E|----------------------------|

Riff 2:
   q  e e q  e e
G|------6-9--8-11-|
D|----8-----------|
A|-9--------------|
E|----------------|

Riff 3:
   q  e e q  e e q  e e q  e e q  q  e e q  q  q  e e q  
G|-------------------------------------------------------|
D|--------5--4-7--------4--3-6----3--6-6-------1--4-4-1--|
A|----4-7-----------3-6--------4---------4--2------------|
E|-5-------------4---------------------------------------|

Riff 4:
   q  q  e e e e
G|-------6-9-8-11-|
D|----8-----------|
A|-9--------------|(Only timing differs 
E|----------------|    from Riff 2)

Riff 5:
   q  q  e e e e q  q  q  e e q  e e q  e e q  e e e e e e
G|---------------------------------------------------------|
D|---------5-4-7-------------------3-6--3-6------1-4-4-1---|
A|----4--7----------3--6--3-6-4--4----------2--2---------2-|(Only timing differs
E|-5-------------4-----------------------------------------|    from Riff 3)
[ Tab from: http://www.guitartabs.cc/tabs/b/beatles/day_tripper_btab_ver_2.html ]
Riff 6:
   q  q  q  q  q  q  q  q  q  q  q  q  q  q  q  q  q
G|----------------------------------------------------|
D|-9--9--9--9--9--9--9--9--9--9--9--9--9--9--9--9--9--|
A|----------------------------------------------------|
E|----------------------------------------------------|

Continued:
   e q.  e q.  e q.  e q.  e e q  e e q  e e q  e e q
G|-----------------------------------------------------|
D|-9-9---9-9---9-9---9-9---9-9-9--9-9-9--9-9-9--9-9-9--|
A|-----------------------------------------------------|
E|-----------------------------------------------------|

Continued:
   e e q  e e q  e e q  e e q  e e e e e e e e e e e e e e e e
G|-------------------------------------------------------------|
D|-9-9-9--9-9-9--9-9-9--9-9-9--9-9-9-9-9-9-9-9-9-9-9-9-9-9-9-9-|
A|-------------------------------------------------------------|
E|-------------------------------------------------------------|

Riff 7:
   h    h    h    h
G|---------------------|
D|---------------------|
A|-7----R----R----R----|
E|---------------------|

Riff 8:
   q.  q  e e e q.  e q.  e q.  e q.  e q.
G|------------9-7-----7-----7-----7-----7---|
D|-----5--6-9-------9-----9-----9-----9-----|
A|-7----------------------------------------|
E|------------------------------------------|

Man, that tired me a lot to type, and I've gotta big fat f ucking headache,
so I can't be bothered to write the song order... BTW, it sounded perfect when
I played it.
Comments