Beatles - Come Together Chords & Tabs

 

Come Together Chords & Tabs

Beatles Chords & Tabs

Version: 6 Type: Bass Tab 0 ratings
1 star 2 stars 3 stars 4 stars 5 stars
comments

Come Together Bass Tab

   
Intro/Verse
G---------10--7/0-|
D-0-0-3/7---------|
A-----------------|
E-----------------|

Pre-Chorus
G-----------------  G------|
D-----3/11--------  D------|
A-0-0--------12/0-  A------|
E-----------------  E-3----| (end with this on second time)

Chorus
G-4-4-4-4-4-4-2-2-0-0-0-0-0/2-|
D-----------------------------|
A-----------------------------|
E-----------------------------|
[ Tab from: http://www.guitartabs.cc/tabs/b/beatles/come_together_btab_ver_6.html ]
Bridge
G---------------------------------------------------------------------------|
D---------------------------------------------------------------------------|
A-5-5-5-5-5-5-5-5-5-5-5-5-5-5-5-5-5-----------------------------------------|
E-----------------------------------5-5-5-5-5-5-5-5-5-5-5-5-5-5-5-5-5-5-5-5-|

Order:
Intro (x4)
Verse (x4)
Pre-Chorus (x2)
Verse (x8)
Pre-Chorus (x2)
Chorus (x1)
Verse (x8)
Pre-Chorus (x2)
Chorus (x1)
Verse (x2)
Bridge (x1)
Verse (x6)
Pre-Chorus (x2)
Chorus (x1)
Verse (x4)
Bridge (play until the end of the song)
Comments