Beatles - Come Together Chords & Tabs

 

Come Together Chords & Tabs

Beatles Chords & Tabs

Version: 5 Type: Bass Tab 0 ratings
1 star 2 stars 3 stars 4 stars 5 stars
comments

Come Together Bass Tab

Main Riff:

--------------------------------------------------------------|
-0-0/15--12(hold for 2 beats)/0-------------------------------|
--------------------------------------------------------------|
--------------------------------------------------------------|
[ Tab from: http://www.guitartabs.cc/tabs/b/beatles/come_together_btab_ver_5.html ]
paul plays a short lick to que the singing:

--------14---------------|
15--17-------15h17p15----|
-------------------------|
-------------------------|

the chorus:
------------------------------------|
------------------------------------|
2-2-2-2-2-2-2-2---------------------|
----------------3-3-3-3-0-----------|
Comments