Beatles - Come Together Chords & Tabs

 

Come Together Chords & Tabs

Beatles Chords & Tabs

Version: 3 Type: Bass Tab 0 ratings
1 star 2 stars 3 stars 4 stars 5 stars
comments

Come Together Bass Tab


The Beatles - Come together Bass Tab



G:----------------------------------------------------------|
D:--------------------------10------------------------------| 
A:------0--0----10/12--------12-----------------------------|
E:----------------------------------------------------------|



thats the main riff the verse goes like this



G----------------------------------------------|
D-----------------------10---------------------|
A--0---0-----10/12-------12--10--12------------|
E----------------------------------------------|
[ Tab from: http://www.guitartabs.cc/tabs/b/beatles/come_together_btab_ver_3.html ]
"he come on flat-topped he come...."



the chorus:



G---------------------------------------|
D---------------------------------------|
A --------------------------------------|
E----7-7-7-7-7-7--5-5--3-3-3-3-5--------|

"come together right now over me"





here's a fill he uses

G----------------------------------------------|
D-------------------10--12h10h12h10------------|
A---0-0--10/12----------------------------12---|
E----------------------------------------------|



thats the song.  It's a cool riff to play, if you have any problems or

questions e-mail me Sean2lax@aol.com
Comments