Beatles - Come Together Chords & Tabs

 

Come Together Chords & Tabs

Beatles Chords & Tabs

Version: 1 Type: Bass Tab 2 ratings
1 star 2 stars 3 stars 4 stars 5 stars
comments

Come Together Bass Tab

Song: Come Togehter
Artist: Beatles
Tabbed By:Nate Bennett (nb028@hotmail.com)

(Intro & Verse)
G|-------------------10------|
D|-----------------------12\-|
A|----------10--h12----------|
E|--10--10-------------------|
[On Intro and Verses let the C note (G-10) ring]

(Bridge 1 & 2)          
G|--------5----|----|
D|-----------7-|----|
A|--0--0-------|----|
E|-------------|--3-|
[Play Bridge 1 four times then play Bridge 2 once]

(Chorus)
G|----------------------------------------|
D|----------------------------------------|
A|--2--2--2--2--2--2--0--0----------------|
E|--------------------------3--3--3--3--5-|
[Remember to rest after the A note (e-5)]
[ Tab from: http://www.guitartabs.cc/tabs/b/beatles/come_together_btab.html ]
(Outro)
G|---------------------|----------------|
D|---------------------|----------------|
A|---------------------|----------------|
E|--10--10--10--10--10-|--5--5--5--5--5-|
[Notes in Outro done more then show above]

(Verse Variation 1)
G|-------------------10--10--h12--10--h12--10\-|
D|---------------------------------------------|
A|----------10--h12----------------------------|
E|--10--10-------------------------------------|
[On verse variations do not pull off on the repeated hammer-ons]

(Verse Variation 2)
G|--------------------------------------------------|
D|--------------------------------------------------|
A|----------10--h12-----------10--h12--10--h12--10\-|
E|--10--10------------------------------------------|
[On verse variations do not pull off on the repeated hammer-ons]

For song order listen to the song.


Comments