Beatles - Cant Buy Me Love Chords & Tabs

 

Cant Buy Me Love Chords & Tabs

Beatles Chords & Tabs

Version: 2 Type: Tab 0 ratings
1 star 2 stars 3 stars 4 stars 5 stars
comments

Cant Buy Me Love Tab

                  Author/Artist: Beatles
          Title: Can't buy me love
          Album:1
          Transcribed by: Lucas Arturo 
          --0-----0----------|---0-----0------|---1-----1--------|---3-----3-----3---||-
          --0-----0----------|---1-----1------|---3-----3--------|---5-----5-----5---||-
          --0-----0----------|---2-----2------|---2-----2--------|---4-----4-----4---||-
          --2-----2----------|---2-----2------|---0-----0--------|---5-----5-----5---||-
          --2-----2----------|---0-----0------|------------------|-------------------||-
          --0-----0----------|----------------|------------------|-------------------||-
            Guitar Solo                                                              x4 
          
          ------------||-------------------------------|----------------|----------|----
          ------------||-------------------------------|--0----0--------|----------|----
          -----8---10-||--10b--10b--10b-10b--10b-8-----|--3/4--3/4------|----------|----
          --10--------||---------------------------10--|--4/5--4/5--5/3-|-1-3-1----|----
          ------------||-------------------------------|----------------|-------3--|----
          ------------||-------------------------------|----------------|----------|----
                                                                                        
          
          -------------------|-----||---------------------------------------------------
          -------------------|-----||---------------------------------------------------
          ------3------------|-----||---------------------------------------------------
          --3/5---5/3-1------|-----||---------------------------------------------------
          --------------3-1--|--3--||---------------------------------------------------
          -------------------|-----||---------------------------------------------------
                                   x2
[ Tab from: http://www.guitartabs.cc/tabs/b/beatles/cant_buy_me_love_tab_ver_2.html ]
Comments