Beatles - Cant Buy Me Love Chords & Tabs

 

Cant Buy Me Love Chords & Tabs

Beatles Chords & Tabs

Version: 2 Type: Bass Tab 0 ratings
1 star 2 stars 3 stars 4 stars 5 stars
comments

Cant Buy Me Love Bass Tab

   
the beatles
cant buy me love
tabbed by saturns_bassman


this is just tabbed all the way through so everything is blended with the whole song,so hope you enjoy!
[ Tab from: http://www.guitartabs.cc/tabs/b/beatles/cant_buy_me_love_btab_ver_2.html ]
|--------|2-2-2-2-|--------|2-2-2-2-|--------|0-0-0-0-|--------|
|2-2-2-2-|--------|2-2-2-2-|--------|0-0-0-0-|--------|--------|
|--------|--------|--------|--------|--------|--------|3-3-----|
|--------|--------|--------|--------|--------|--------|----3-3-|
 
|--------|--------|--------|--------|--------|--------|--------|
|--------|--------|--------|3-3-----|3-3-----|--------|--------|
|3-3-----|3-3-----|3-3-----|----3-3-|----3-3-|3-3-----|3-3-----|
|----3-3-|----3-3-|----3-3-|--------|--------|----3-3-|----3-3-|
 
|--------|--|--------|--------|--------|--------|--------|--------|
|----0---|--|--------|--------|--------|--------|--------|--------|
|--------|--|--------|3-3-----|3-3-----|3-3-----|3-3-----|3-3-----|
|3-3---3-|1-|1-1-1-1-|----3-3-|----3-3-|----3-3-|----3-3-|----3-3-|
 
|--------|--------|--------|--------|--------|--|--------|--------|
|3-3-----|3-3-----|--------|--------|----0---|--|--------|--------|
|----3-3-|----3-3-|3-3-----|3-3-----|--------|--|--------|3-3-3-3-|
|--------|--------|----3-3-|----3-3-|3-3---3-|1-|1-1-1-1-|--------|
  
|--------|2-2-2-2-|--------|--------|--------|2-2-2-2-|--------|
|2-2-2-2-|--------|--------|--------|2-2-2-2-|--------|0-0-0-0-|
|--------|--------|3-3-----|3-3-----|--------|--------|--------|
|--------|--------|----3-3-|----3-3-|--------|--------|--------|
 
|--------|--------|--------|--------|--------|--------|--------|
|--------|--------|--------|--------|--------|--------|--------|
|--------|3-3---1-|3-3---1-|3-3---1-|3-3---1-|----3-3-|----3---|
|3-3-3-3-|----3---|----3---|----3---|----3---|1-1-----|1-1---1-|
 e
|--------|--------|--------|--|--------|--------|--------|--------|
|--------|--------|----0---|--|--------|--------|--------|--------|
|3-3-----|3-3---0-|--------|--|--------|3-3-----|3-----1-|3-3-----|
|----3-3-|----3---|3-3---3-|1-|1-1-1-1-|----3-3-|--3-3---|----3-3-|
 e 
|--------|--------|--------|--------|--------|--------|--------|
|--------|--------|--------|3-3-----|3-3-----|--------|--------|
|3-3-----|3-3-----|3-3-----|----3-3-|----3-3-|3-3-----|3-3-----|
|----3-3-|----3-3-|----3-3-|--------|--------|----3-3-|----3-3-|
 
|--------|--|--------|--------|--------|2-2-2-2-|--------|--------|
|----0---|--|--------|--------|2-2-2-2-|--------|--------|--------|
|--------|--|--------|3-3-3-3-|--------|--------|3-3-----|3-3-----|
|3-3---3-|1-|1-1-1-1-|--------|--------|--------|----3-3-|----3-3-|

|--------|2-2-2-2-|--------|--------|--------|--------|--------|
|2-2-2-2-|--------|0-0-0-0-|--------|--------|--------|--------|
|--------|--------|--------|--------|3-3---1-|3-3---1-|3-3---1-|
|--------|--------|--------|3-3-3-3-|----3---|----3---|----3---|
 
|--------|--------|--------|--------|--------|--------|--|--------|
|--------|--------|--------|--------|--------|----0---|--|3-3---3-|
|3-3---1-|----3-3-|----3---|3-3-----|3-3---0-|--------|--|----3---|
|----3---|1-1-----|1-1---1-|----3-3-|----3---|3-3---3-|1-|--------|

|--------|--------|2-2-2-2-|--------|2-2-2-2-|--------|--------|
|--------|2-2-2-2-|--------|2-2-2-2-|--------|0-0-0-0-|--------|
|3-3---3-|--------|--------|--------|--------|--------|--------|
|----3---|--------|--------|--------|--------|--------|3-3-3-3-|
 
|--------|--||
|--------|--||
|3-3-----|3-||
|----3-3-|--||
Comments