Beatles - Blackbird Chords & Tabs

 

Blackbird Chords & Tabs

Beatles Chords & Tabs

Version: 5 Type: Tab 1 rating
1 star 2 stars 3 stars 4 stars 5 stars
comments

Blackbird Tab

|--------------|----------------|----------------|
|--------------|-12--------12---|-12--------12---|
|--4---5---7---|------0-------0-|------0-------0-| #1
|----0---0---0-|----0-----------|----0-----------|
|--------------|-10-----10------|-10-----10------|
|--3---5---7---|----------------|----------------|




|------3---|------5---|-------------|-------------|-----3---|
|--5-------|--7-------|-8-------8---|-8-------8---|-7-------|
|----0---0-|----0---0-|-----0-----0-|-----0-----0-|---0---0-| #2
|----------|----------|---0---------|---0---------|---------|
|--3---4---|--5---6---|-7-----7-----|-6-----6-----|-5---5---|
|----------|----------|-------------|-------------|---------|



[ Tab from: http://www.guitartabs.cc/tabs/b/beatles/blackbird_tab_ver_5.html ]
|--------------|-------------|-------------|-------------|-------------|-------------|
|--5-------5---|-4-------4---|-3-------3---|-2-------2---|-1-------1---|-------------|
|------0-----0-|-----0-----0-|-----0-----0-|-----0-----0-|-----2-----2-|-4-------4---| #3
|----0---------|---0---------|---0---------|---0---------|---0---------|-----0-----0-|
|--3-----3-----|-3-----3-----|-2-----2-----|-0-----0-----|-0-----0-----|---0---------|
|--------------|-------------|-------------|-------------|-------------|-3-----3-----| 


Ending #1

|----------|-------------|-------------|-------------|
|--5---3---|-2-------2---|-1-------1---|-------------|
|----0---0-|-----0-----0-|-----2-----2-|-4-------4---|
|----------|---0---------|---0---------|-----0-----0-|
|--3---2---|-0-----0-----|-0-----0-----|---0---------|
|----------|-------------|-------------|-3-----3-----|

    Repeat,but end with Ending #2 instead of Ending #1


Ending #2

|-------------------|-------------|-------------|-------------|
|--10---8---6---5---|-3-------3---|-2-------2---|-1-------1---|
|-----0---0---0---0-|-----0-----0-|-----0-----0-|-----2-----2-|
|-------------------|---0---------|---0---------|---0---------|
|--8----7---5---3---|-1-----1-----|-0-----0-----|-0-----0-----|
|-------------------|-------------|-------------|-------------|

   Repeat and end with #3


   Repeat again and end with Ending #2

   
   Repeat for the last time and end with Ending #1
Comments