Beatles - Blackbird Chords & Tabs

 

Blackbird Chords & Tabs

Beatles Chords & Tabs

Version: 16 Type: Tab 0 ratings
1 star 2 stars 3 stars 4 stars 5 stars
comments

Blackbird Tab

I have learned many Different tabs of this song and none of them seem to be right. So I 
sat and listened to the song and this is how I hear it played. If you have any questions 
or comments feel free to email me at little_josh_01@hotmail.com

e----------------------------------------------------------------3-----5----|
b---0--1--3--12----12--12----12--0--1--3--12----12--12----12--5-----7-------|
g----0--0-------0---------0-------0--0-------0----------0-------------------|
d--------------0---------0------------------0----------0--------------------|
a------0--1--10--10----10--10-------0--1--10--10----10--10----3--4--5--6----|
e---3----------------------------3------------------------------------------|

e--------------------3------------------------------------------------------|
b---8---8--8---8--7-----5---5--4---4--3---3--2---2--1---1--0--4--3----------|
g-----0------0------------0------0------0------0------0---------------------|
d----0------0------------0------0------0------0------0----------------------|
a---7--7---6--6---5--4--3--3---3--3---2--2---0--0---0--0------3--2----------|
e----------------------------------------------------------3----------------|

e------------------------------------------------------3-----5--------------|
b---2---2--1---1--0----0--1--3--12----12--12----12--5-----7-----8---8-------|
g-----0------0----------0--0-------0---------0--------------------0---------|
d----0------0---------------------0---------0--------------------0----------|
a---0--0---0--0-----------0--1--10--10----10--10----3--4--5--6--7--7--------|
e-----------------3----3----------------------------------------------------|

e-------------3-------------------------------------------------------------|
b---8---8--7-----5---5--4---4--3---3--2---2--1---1--0--10--8--6--4--3---3---|
g-----0------------0------0------0------0------0---------0--0--0--0---0-----|
d----0------------0------0------0------0------0----------------------0------|
a---6--6---5--4--3--3---3--3---2--2---0--0---0--0------8---7--5--3--2--2----|
e---------------------------------------------------3-----------------------|

e---------------------------------------------------------------------------|
b---5---5--10--8--6--4--3---3--2---2--1---1--0--1--3--12----12--12---12-----|
g-----0------0--0--0--0---0------0------0-----0--0-------0--------0----0----|
d----0-------------------0------0------0----------------0-------------------|
a---3--3---8---7--5--3--2--2---0--0---0--0------0--1--10--10----10---10-----|
e--------------------------------------------3------------------------------|
[ Tab from: http://www.guitartabs.cc/tabs/b/beatles/blackbird_tab_ver_16.html ]
e------3-----5-------------------3------------------------------------------|
b---5-----7-----8---8--8---8--7-----5---5--4---4--3---3--2---2--1---1-------|
g-----------------0------0------------0------0------0------0------0---------|
d----------------0------0------------0------0------0------0------0----------|
a---3--4--5--6--7--7---6--6---5--4--3--3---3--3---2--2---0--0---0--0--------|
e---------------------------------------------------------------------------|

e---------------------------------------------------------------------------|
b---10--8--6--4--3---3--5---5--10--8--6--4--3---3--2---2--1---1--0--1--3----|
g-----0--0--0--0---0------0------0--0--0--0---0------0------0-----0--0------|
d-----------------0------0-------------------0------0------0----------------|
a---8---7--5--3--2--2---3--3---8---7--5--3--2--2---0--0---0--0------0--1----|
e----------------------------------------------------------------3----------|
                                                This is the pause\/portion.
e---------------------------------------------------------------------------|
b---12----12--12--12----12--12----12--12----12--12--12--12--12--------------|
g------0--------0--------------0---------0--------0---0---0-----------------|
d-----0-----------------------0---------0-----------------------------------|
a---10--10----10--10--10----10--10----10--10----10--10--10--10--------------|
e---------------------------------------------------------------------------|

e------------------------------------------------------------3-----5--------|
b---1--2--3--4--3--2--1---1--0--1--3--12----12--12----12--5-----7-----8---8-|
g-----------------------0-----0--0-------0---------0--------------------0---|
d----------------------0----------------0---------0--------------------0----|
a---0--0--2--3--2--0--0--0------0--1--10--10----10--10----3--4--5--6--7--7--|
e----------------------------3----------------------------------------------|

e-------------3-------------------------------------------------------------|
b---8---8--7-----5---5--4---4--3---3--2---2--1---1--0--4--3--2---2--1---1---|
g-----0------------0------0------0------0------0---------------0------0-----|
d----0------------0------0------0------0------0---------------0------0------|
a---6--6---5--4--3--3---3--3---2--2---0--0---0--0------3--2--0--0---0--0----|
e---------------------------------------------------3-----------------------|

e---------------------------------------------------------------------------|
b---0--4--3--2---2--1---1---------------------------------------------------|
g--------------0------0-----------------------------------------------------|
d-------------0------0------------------------------------------------------|
a------3--2--0--0---0--0----------------------------------------------------|
e---3-----------------------------------------------------------------------|
Comments