Beatles - Blackbird Chords & Tabs

 

Blackbird Chords & Tabs

Beatles Chords & Tabs

Version: 15 Type: Tab 0 ratings
1 star 2 stars 3 stars 4 stars 5 stars
comments

Blackbird Tab

   
Group: The Beatles
Song: Blackbird
Album: The Beatles
Released: November 22, 1968
Recorded: June 11, 1968
Genre: Folk
Length: 2:18
Label: Apple Records
Writer: McCartney/Lennon
Producer: George Martin

Well, since I'm a Beatle fan, I've decided to write a tab of how I play
this song. You can leave me a comment of how well or bad I did since this is the first 
I write.


D: Down strum with your index finger
U: Up strum with your index finger
   (And if you can't strum the D string don't worry, at least try to strum
    the B and G strings)

All of the outer strings are played with the thumb and the middle fingers except for 
you have to strum

E|-----------------------------------------|
B|-0--1--3--12-12-12--12-12-12-12-12--12-12|
G|--0--0--0-----0--0---0--0-----0--0---0--0|
D|--------------0--0---0--0-----0--0---0--0|
A|----0--2--10------10------10------10-----|
E|-3---------------------------------------|
                D  U   U  D     D  U   U  D

E|-----------------------------------------|
B|-0--1--3--12-12-12--12-12-12-12-12--12-12|
G|--0--0--0-----0--0---0--0-----0--0---0--0|
D|--------------0--0---0--0-----0--0---0--0|
A|----0--2--10------10------10------10-----|
E|-3---------------------------------------|
                D  U   U  D     D  U   U  D

E|----3-----5-----------------------------|
B|-5-----7-----8-8-8--8-8-8-8-8--8-8------|
G|--0--0--0--0---0-0--0-0---0-0--0-0------|
D|---------------0-0--0-0---0-0--0-0------|
A|-3--4--5--6--7----7-----6----6----------|
E|----------------------------------------|
                 D U  U D   D U  U D

E|----3-------------------------------------------------------------------|
B|-7-----5-5-5--5-5-4-4-4--4-4-3-3-3--3-3-2-2-2--2-2-1-1-1--1-1-0-0-0--0-0|
G|--0--0---0-0--0-0---0-0--0-0---0-0--0-0---0-0--0-0---0-0--0-0---0-0--0-0|
D|---------0-0--0-0---0-0--0-0---0-0--0-0---0-0--0-0---0-0--0-0---0-0--0-0|
A|-5--4--3----3-----3----3-----2----2-----0----0-----0----0---------------|
E|--------------------------------------------------------------3----3----|
           D U  U D   D U  U D   D U  U D   D U  U D   D U  U D   D U  U D

E|---------------------------------------|
B|-5--3--2-2-2--2-2-1-1-1--1-1-0-0-0--0-0|
G|--0--0---0-0--0-0---0-0--0-0---0-0--0-0|
D|---------0-0--0-0---0-0--0-0---0-0--0-0|
A|-3--2--0----0-----0----0---------------|
E|-----------------------------3----3----|
           D U  U D   D U  U D   D U  U D

E|-----------------------------------------|
B|-0--1--3--12-12-12--12-12-12-12-12--12-12|
G|--0--0--0-----0--0---0--0-----0--0---0--0|
D|--------------0--0---0--0-----0--0---0--0|
A|----0--2--10------10------10------10-----|
E|-3---------------------------------------|
                D  U   U  D     D  U   U  D

E|----3-----5------------------------------|
B|-5-----7------8-8-8--8-8-8-8-8--8-8------|
G|--0--0--0--0----0-0--0-0---0-0--0-0------|
D|----------------0-0--0-0---0-0--0-0------|
A|-3--4--5--6---7----7-----6----6----------|
E|-----------------------------------------|
                  D U  U D   D U  U D
[ Tab from: http://www.guitartabs.cc/tabs/b/beatles/blackbird_tab_ver_15.html ]
E|----3-------------------------------------------------------------------|
B|-7-----5-5-5--5-5-4-4-4--4-4-3-3-3--3-3-2-2-2--2-2-1-1-1--1-1-0-0-0--0-0|
G|--0--0---0-0--0-0---0-0--0-0---0-0--0-0---0-0--0-0---0-0--0-0---0-0--0-0|
D|---------0-0--0-0---0-0--0-0---0-0--0-0---0-0--0-0---0-0--0-0---0-0--0-0|
A|-5--4--3----3-----3----3-----2----2-----0----0-----0----0---------------|
E|--------------------------------------------------------------3----3----|
           D U  U D   D U  U D   D U  U D   D U  U D   D U  U D   D U  U D
E|-----------------------------------|
B|-10--8--6--5--3-3-3--3-3-5-5-5--5-5|
G|---0--0--0--0---0-0--0-0---0-0--0-0|
D|----------------0-0--0-0---0-0--0-0|
A|--8--7--5--3--1----1-----3-----3---|
E|-----------------------------------|
                  D U  U D   D U  U D
E|----------------------------------------------|
B|-10--8--6--5--3-3-3--3-3-2-2-2--2-2-1-1-1--1-1|
G|---0--0--0--0---0-0--0-0---0-0--0-0---0-0--0-0|
D|----------------0-0--0-0---0-0--0-0---0-0--0-0|
A|--8--7--5--3--1----1-----0----0-----0----0----|
E|----------------------------------------------|
                  D U  U D   D U  U D   D U  U D

E|-----------------------------------------|
B|-0--1--3--12-12-12--12-12-12-12-12--12-12|
G|--0--0--0-----0--0---0--0-----0--0---0--0|
D|--------------0--0---0--0-----0--0---0--0|
A|----0--2--10------10------10------10-----|
E|-3---------------------------------------|
                D  U   U  D     D  U   U  D

E|----3-----5------------------------------|
B|-5-----7------8-8-8--8-8-8-8-8--8-8------|
G|--0--0--0--0----0-0--0-0---0-0--0-0------|
D|----------------0-0--0-0---0-0--0-0------|
A|-3--4--5--6---7----7-----6----6----------|
E|-----------------------------------------|
                  D U  U D   D U  U D

E|----3-------------------------------------------------------------------|
B|-7-----5-5-5--5-5-4-4-4--4-4-3-3-3--3-3-2-2-2--2-2-1-1-1--1-1-0-0-0--0-0|
G|--0--0---0-0--0-0---0-0--0-0---0-0--0-0---0-0--0-0---0-0--0-0---0-0--0-0|
D|---------0-0--0-0---0-0--0-0---0-0--0-0---0-0--0-0---0-0--0-0---0-0--0-0|
A|-5--4--3----3-----3----3-----2----2-----0----0-----0----0---------------|
E|--------------------------------------------------------------3----3----|
           D U  U D   D U  U D   D U  U D   D U  U D   D U  U D   D U  U D

E|---------------------------------------------------------|
B|-10--8--6--5--3-3-3--3-3-3-3-3--3-3-5-5-5--5-5-5-5-5--5-5|
G|---0--0--0--0---0-0--0-0---0-0--0-0---0-0--0-0---0-0--0-0|
D|----------------0-0--0-0---0-0--0-0---0-0--0-0---0-0--0-0|
A|--8--7--5--3--1----1-----1----1-----3----3-----3----3----|
E|---------------------------------------------------------|
                  D U  U D   D U  U D   D U  U D   D U  U D
E|----------------------------------------------|
B|-10--8--6--5--3-3-3--3-3-2-2-2--2-2-1-1-1--1-1|
G|---0--0--0--0---0-0--0-0---0-0--0-0---0-0--0-0|
D|----------------0-0--0-0---0-0--0-0---0-0--0-0|
A|--8--7--5--3--1----1-----0----0-----0----0----|
E|----------------------------------------------|
                  D U  U D   D U  U D   D U  U D

I'M NOT DONE YET
I'M STILL WORKING ON IT
Comments