Beatles - Birthday Chords & Tabs

 

Birthday Chords & Tabs

Beatles Chords & Tabs

Version: 4 Type: Tab 0 ratings
1 star 2 stars 3 stars 4 stars 5 stars
comments

Birthday Tab

ok this is my first tab so correct me if i do anything wrong...
INTRO:
e---------------------------------------------------------------
b---------------------------------------------------------------
g-----------------2-2-----------------------------2-2-----------
d-----------2--4----------------------------2--4----------------
a--0-0-3/4-------------0-----------0-0-3/4-------------0--------
e---------------------------------------------------------------

e---------------------------------------------------------------
b-----------------3-3-------------------------------------------
g-----------2--4----------------------------------2-2-----------
d--0-0-3/4-------------0--------------------2--4----------------
a----------------------------------0-0-3/4-------------0--------
e---------------------------------------------------------------

e---------------------------------------------------------------
b---------------------------------------------------------------
g------------------------------------------------2-2------------
d----------------2-2-----------------------2--4-----------------
a-----------2/4-------------------0-0-3/4-------------0---------
e--0-0-3/4------------0-----------------------------------------
VERSE 1:
e---------------------------------------------------------------
b---------------------------------------------------------------
g-----------------2-2-----------------------------2-2-----------
d-----------2--4----------------------------2--4----------------
a--0-0-3/4-------------0-----------0-0-3/4-------------0--------
e---------------------------------------------------------------

e---------------------------------------------------------------
b-----------------3-3-------------------------------------------
g-----------2--4----------------------------------2-2-----------
d--0-0-3/4-------------0--------------------2--4----------------
a----------------------------------0-0-3/4-------------0--------
e---------------------------------------------------------------

e---------------------------------------------------------------
b---------------------------------------------------------------
g------------------------------------------------2-2------------
d----------------2-2-----------------------2--4-----------------
a-----------2/4-------------------0-0-3/4-------------0---------
e--0-0-3/4------------0-----------------------------------------
8 messures of rest then...
e---------------------------------------------------------------
b---------------------------------------------------------------
g---------------------------------------------------------------
d---------------------------------------------------------------
a--7---7---7---7---7---7---7---7---7---7---7---7---7---7---7---7
e--0---0---0---0---0---0---0---0---0---0---0---0---0---0---0---0

e---------------------------------------------------------------
b---------------------------------------------------------------
g---------------------------------------------------------------
d---------------------------------------------------------------
a--7---7---7---7---7---7---7---7---7---7---7---7---7---7---7---7
e--0---0---0---0---0---0---0---0---0---0---0---0---0---0---0---0

e---------------------------------------------------------------
b---------------------------------------------------------------
g---------------------------------------------------------------
d---------------------------------------------------------------
a--7---7---7---7---7---7---7---7---7---7---7---7---7---7---7---7
e--0---0---0---0---0---0---0---0---0---0---0---0---0---0---0---0

e---------------------------------------------------------------
b---------------------------------------------------------------
g---------------------------------------------------------------
d---------------------------------------------------------------
a--7---7---7---7---7---7---7---7---7---7---7---7---7---7---7---7
e--0---0---0---0---0---0---0---0---0---0---0---0---0---0---0---0
[ Tab from: http://www.guitartabs.cc/tabs/b/beatles/birthday_tab_ver_4.html ]
e---------------------------------------------------------------
b---------------------------------------------------------------
g---------------------------------------------------------------
d----------------3--3--4--4--5--5--3--3-------------------------
a---3---5/7---7-------------------------5/7--7--5--5------------
e---------------------------------------------------------------

e---------------------------------------------------------------
b---------------------------------------------------------------
g---------------------------------------------------------------
d----------------3--3--4--4--5--5--3--3-------------------------
a---3---5/7---7-------------------------5/7--7--5--5------------
e---------------------------------------------------------------

e---------------------------------------------------------------
b---------------------------------------------------------------
g---------------------------------------------------------------
d----------------3--3--4--4--5--5--3--3-------------------------
a---3---5/7---7-------------------------5/7--7--5--5------------
e---------------------------------------------------------------

e--------------------------------------------------------5--5---
b--------------------------------------------------------8--8---
g---------------------------------------------------------------
d------------------3-3-4-4-5-5-6-6-7-7-8-8-9-9------------------
a---3---3-5/7---7-----------------------------------------------
e---------------------------------------------------------------

e---------------------------------------------------------------
b---------------------------------------------------------------
g-----------------2-2-----------------------------2-2-----------
d-----------2--4----------------------------2--4----------------
a--0-0-3/4-------------0-----------0-0-3/4-------------0--------
e---------------------------------------------------------------

e---------------------------------------------------------------
b-----------------3-3-------------------------------------------
g-----------2--4----------------------------------2-2-----------
d--0-0-3/4-------------0--------------------2--4----------------
a----------------------------------0-0-3/4-------------0--------
e---------------------------------------------------------------

e---------------------------------------------------------------
b---------------------------------------------------------------
g------------------------------------------------2-2------------
d----------------2-2-----------------------2--4-----------------
a-----------2/4-------------------0-0-3/4-------------0---------
e--0-0-3/4------------0-----------------------------------------

e---------------------------------------------------------------
b---------------------------------------------------------------
g---------------------------------------------5--7--(7)-575-----
d---------5--7--5-----------------------5--7---------------(7)-5
a-----7----------7--5--3------------7---------------------------
e---5--------------------5--3-----5-----------------------------

e---------------------------------------------------------------
b---------------------------------------------------------------
g-----------------2-2-----------------------------2-2-----------
d-----------2--4----------------------------2--4----------------
a--0-0-3/4-------------0-----------0-0-3/4-------------0--------
e---------------------------------------------------------------

e---------------------------------------------------------------
b-----------------3-3-------------------------------------------
g-----------2--4----------------------------------2-2-----------
d--0-0-3/4-------------0--------------------2--4----------------
a----------------------------------0-0-3/4-------------0--------
e---------------------------------------------------------------

e---------------------------------------------------------------
b---------------------------------------------------------------
g------------------------------------------------2-2------------
d----------------2-2-----------------------2--4-----------------
a-----------2/4-------------------0-0-3/4-------------0---------
e--0-0-3/4------------0-----------------------------------------
Comments