Beatles - Birthday Chords & Tabs

 

Birthday Chords & Tabs

Beatles Chords & Tabs

Version: 3 Type: Tab 0 ratings
1 star 2 stars 3 stars 4 stars 5 stars
comments

Birthday Tab

E----------------0----3--2---0------------------------------
B-----------2-----------------------------------------------
G--2---2-------------------------2--------------------------
D-----------------------------------------------------------
A-----------------------------------------------------------
E-----------------------------------------------------------


E----------------0----3--2---0------------------------------
B-----------2-----------------------------------------------
G--2---2-------------------------2--------------------------
D-----------------------------------------------------------
A-----------------------------------------------------------
E-----------------------------------------------------------


E----------------5----8--7---5------------------------------
B-----------7-----------------------------------------------
G--7---7-------------------------7--------------------------
D-----------------------------------------------------------
A-----------------------------------------------------------
E-----------------------------------------------------------

[ Tab from: http://www.guitartabs.cc/tabs/b/beatles/birthday_tab_ver_3.html ]
E----------------0----3--2---0------------------------------
B-----------2-----------------------------------------------
G--2---2-------------------------2--------------------------
D-----------------------------------------------------------
A-----------------------------------------------------------
E-----------------------------------------------------------


E----------------7----10--9---7-----------------------------
B-----------9-----------------------------------------------
G--9---9-------------------------9--------------------------
D-----------------------------------------------------------
A-----------------------------------------------------------
E-----------------------------------------------------------


E----------------0----3--2---0------------------------------
B-----------2-----------------------------------------------
G--2---2-------------------------2--------------------------
D-----------------------------------------------------------
A-----------------------------------------------------------
E-----------------------------------------------------------

enjoy!
Comments