Beatles - Birthday Chords & Tabs

 

Birthday Chords & Tabs

Beatles Chords & Tabs

Version: 6 Type: Bass Tab 0 ratings
1 star 2 stars 3 stars 4 stars 5 stars
comments

Birthday Bass Tab

BIRTHDAY

Written by Paul McCartney & John Lennon

INTRO

G|---------------------------------|---------------------------------|
D|-----------------5---4-----------|-----------------5---4-----------|
A|---------4---7---------------7---|---------4---7---------------7---|
E|-5---5---------------------------|-5---5---------------------------|

G|---------------------------------|---------------------------------|
D|-----------------5---4-----------|-----------------5---4-----------|
A|---------4---7---------------7---|---------4---7---------------7---|
E|-5---5---------------------------|-5---5---------------------------|

G|-----------------5---4-----------|-----------------5---4-----------|
D|---------4---7---------------7---|---------4---7---------------7---|
A|-5---5---------------------------|-5---5---------------------------|
E|---------------------------------|---------------------------------|

G|---------------------------------|---------------------------------|
D|-----------------5---4-----------|-----------------5---4-----------|
A|---------4---7---------------7---|---------4---7---------------7---|
E|-5---5---------------------------|-5---5---------------------------|

G|-----------------7---6-----------|-----------------7---6-----------|
D|---------6---9---------------9---|---------6---9---------------9---|
A|-7---7---------------------------|-7---7---------------------------|
E|---------------------------------|---------------------------------|

G|---------------------------------|---------------------------------|
D|-----------------5---4-----------|-----------------5---4-----------|
A|---------4---7---------------7---|---------4---7---------------7---|
E|-5---5---------------------------|-5---5---------------------------|

VERSE

G|---------------------------------|---------------------------------|
D|-----------------5---4-----------|-----------------5---4-----------|
A|---------4---7---------------7---|---------4---7---------------7---|
E|-5---5---------------------------|-5---5---------------------------|

G|---------------------------------|---------------------------------|
D|-----------------5---4-----------|-----------------5---4-----------|
A|---------4---7---------------7---|---------4---7---------------7---|
E|-5---5---------------------------|-5---5---------------------------|

G|-----------------5---4-----------|-----------------5---4-----------|
D|---------4---7---------------7---|---------4---7---------------7---|
A|-5---5---------------------------|-5---5---------------------------|
E|---------------------------------|---------------------------------|

G|---------------------------------|---------------------------------|
D|-----------------5---4-----------|-----------------5---4-----------|
A|---------4---7---------------7---|---------4---7---------------7---|
E|-5---5---------------------------|-5---5---------------------------|

G|-----------------7---6-----------|-----------------7---6-----------|
D|---------6---9---------------9---|---------6---9---------------9---|
A|-7---7---------------------------|-7---7---------------------------|
E|---------------------------------|---------------------------------|

G|---------------------------------|---------------------------------|
D|-----------------5---4-----------|-----------------5---4-----------|
A|---------4---7---------------7---|---------4---7---------------7---|
E|-5---5---------------------------|-5---5---------------------------|

DRUMS SOLO

G|---------------------------------|---------------------------------|
D|---------------------------------|---------------------------------|
A|---------------------------------|---------------------------------|
E|---------------------------------|---------------------------------|

G|---------------------------------|---------------------------------|
D|---------------------------------|---------------------------------|
A|---------------------------------|---------------------------------|
E|---------------------------------|---------------------------------|

G|---------------------------------|---------------------------------|
D|---------------------------------|---------------------------------|
A|---------------------------------|---------------------------------|
E|---------------------------------|---------------------------------|

G|---------------------------------|---------------------------------|
D|---------------------------------|---------------------------------|
A|---------------------------------|---------------------------------|
E|---------------------------------|---------------------------------|

INTERLUDE

G|---------------------------------|---------------------------------|
D|---------------------------------|---------------------------------|
A|-7---7---7---7---7---7---7---7---|-7---7---7---7---7---7---7---7---|
E|---------------------------------|---------------------------------|

G|---------------------------------|---------------------------------|
D|---------------------------------|---------------------------------|
A|-7---7---7---7---7---7---7---7---|-7---7---7---7---7---7---7---7---|
E|---------------------------------|---------------------------------|

G|---------------------------------|---------------------------------|
D|---------------------------------|---------------------------------|
A|-7---7---7---7---7---7---7---7---|-7---7---7---7---7---7---7---7---|
E|---------------------------------|---------------------------------|

G|---------------------------------|---------------------------------|
D|---------------------------------|---------------------------------|
A|-7---7---7---7---7---7---7---7---|-7---7---7---7---7---5---5---5---|
E|---------------------------------|---------------------------------|

BRIDGE

G|---------------------------------|---------------------------------|
D|---------2---2---3---3---4---4---|-5---5---3---3---2---2-----------|
A|-3---3---------------------------|-------------------------5---5---|
E|---------------------------------|---------------------------------|

G|---------------------------------|---------------------------------|
D|---------2---2---3---3---4---4---|-5---5---3---3---2---2-----------|
A|-3---3---------------------------|-------------------------5---5---|
E|---------------------------------|---------------------------------|
[ Tab from: http://www.guitartabs.cc/tabs/b/beatles/birthday_btab_ver_6.html ]
G|---------------------------------|---------------------------------|
D|---------2---2---3---3---4---4---|-5---5---3---3---2---2-----------|
A|-3---3---------------------------|-------------------------5---5---|
E|---------------------------------|---------------------------------|

G|---------------------------------|---------------------------------|
D|---------2---2---3---3---4---4---|-5---5---6---6---7---7---8---8---|
A|-3---3---------------------------|---------------------------------|
E|---------------------------------|---------------------------------|

G|---------------------------------|---------------------------------|
D|-9---9---9---9---9---9---9---9---|---------------------------------|
A|---------------------------------|-7---7---7---7---7---7---7---7---|
E|---------------------------------|---------------------------------|

GUITAR SOLO

G|---------------------------------|---------------------------------|
D|-----------------5---4-----------|-----------------5---4-----------|
A|---------4---7---------------7---|---------4---7---------------7---|
E|-5---5---------------------------|-5---5---------------------------|

G|---------------------------------|---------------------------------|
D|-----------------5---4-----------|-----------------5---4-----------|
A|---------4---7---------------7---|---------4---7---------------7---|
E|-5---5---------------------------|-5---5---------------------------|

G|-----------------5---4-----------|-----------------5---4-----------|
D|---------4---7---------------7---|---------4---7---------------7---|
A|-5---5---------------------------|-5---5---------------------------|
E|---------------------------------|---------------------------------|

G|---------------------------------|---------------------------------|
D|-----------------5---4-----------|-----------------5---4-----------|
A|---------4---7---------------7---|---------4---7---------------7---|
E|-5---5---------------------------|-5---5---------------------------|

G|-----------------7---6-----------|-----------------7---6-----------|
D|---------6---9---------------9---|---------6---9---------------9---|
A|-7---7---------------------------|-7---7---------------------------|
E|---------------------------------|---------------------------------|

G|---------------------------------|---------------------------------|
D|-----------------5---4-----------|-----------------5---4-----------|
A|---------4---7---------------7---|---------4---7---------------7---|
E|-5---5---------------------------|-5---5---------------------------|

G|---------------------------------|---------------------------------|
D|-------------5-------7-------5---|---------------------------------|
A|-----7---------------------------|-7---5---3-----------------------|
E|-5-------------------------------|-------------5---3---------------|

G|-----------------------------5---|/9---7---5-----------------------|
D|-------------5-------7-----------|-------------7---5---5---5---5---|
A|-----7---------------------------|---------------------------------|
E|-5-------------------------------|---------------------------------|

BRIDGE

G|---------------------------------|---------------------------------|
D|---------2---2---3---3---4---4---|-5---5---3---3---2---2-----------|
A|-3---3---------------------------|-------------------------5---5---|
E|---------------------------------|---------------------------------|

G|---------------------------------|---------------------------------|
D|---------2---2---3---3---4---4---|-5---5---3---3---2---2-----------|
A|-3---3---------------------------|-------------------------5---5---|
E|---------------------------------|---------------------------------|

G|---------------------------------|---------------------------------|
D|---------2---2---3---3---4---4---|-5---5---3---3---2---2-----------|
A|-3---3---------------------------|-------------------------5---5---|
E|---------------------------------|---------------------------------|

G|---------------------------------|---------------------------------|
D|---------2---2---3---3---4---4---|-5---5---6---6---7---7---8---8---|
A|-3---3---------------------------|---------------------------------|
E|---------------------------------|---------------------------------|

G|---------------------------------|---------------------------------|
D|-9---9---9---9---9---9---9---9---|---------------------------------|
A|---------------------------------|-7---7---7---7---7---7---7---7---|
E|---------------------------------|---------------------------------|

VERSE

G|---------------------------------|---------------------------------|
D|-----------------5---4-----------|-----------------5---4-----------|
A|---------4---7---------------7---|---------4---7---------------7---|
E|-5---5---------------------------|-5---5---------------------------|

G|---------------------------------|---------------------------------|
D|-----------------5---4-----------|-----------------5---4-----------|
A|---------4---7---------------7---|---------4---7---------------7---|
E|-5---5---------------------------|-5---5---------------------------|

G|-----------------5---4-----------|-----------------5---4-----------|
D|---------4---7---------------7---|---------4---7---------------7---|
A|-5---5---------------------------|-5---5---------------------------|
E|---------------------------------|---------------------------------|

G|---------------------------------|---------------------------------|
D|-----------------5---4-----------|-----------------5---4-----------|
A|---------4---7---------------7---|---------4---7---------------7---|
E|-5---5---------------------------|-5---5---------------------------|

G|-----------------7---6-----------|-----------------7---6-----------|
D|---------6---9---------------9---|---------6---9---------------9---|
A|-7---7---------------------------|-7---7---------------------------|
E|---------------------------------|---------------------------------|

G|---------------------------------|---------------------------------|
D|-----------------5---4-----------|-----------------5---4-----------|
A|---------4---7-------------------|---------4---7-------------------|
E|-5---5-----------------------5---|-----5-----------------------5---|

G|---------------------------------|---------------------------------|
D|-----------------5---4-----------|---------------------------------|
A|---------4---7-----------7-------|---------------------------------|
E|-----5-----------------------5---|---------------------------------|
Comments