Beatles - Being For The Nenefit Of Mr Kite Chords & Tabs

 

Being For The Nenefit Of Mr Kite Chords & Tabs

Beatles Chords & Tabs

Version: 1 Type: Tab 0 ratings
1 star 2 stars 3 stars 4 stars 5 stars
comments

Being For The Nenefit Of Mr Kite Tab

Author/Artist: The Beatles (Lennon/McCartney)
Title: Being for the nenefit of mr. kite
Album: Sgt. peppers lonely hearts club band
Transcribed by: Guillermo
Email: osollegui@hotmail.com

 Intro:                                       fill: ...chalenge the world...

1||---------8-10-----------7-9-10-12-9-10---||----8-10-------7-9----10---||
2||11-10-11------11-10--10----------------8-||-11------11-10-----10----8-||
3||-----------------------------------------||---------------------------||
4||-----------------------------------------||---------------------------||
5||-----------------------------------------||---------------------------||
6||-----------------------------------------||---------------------------||


Outro solo (solo final):
[ Tab from: http://www.guitartabs.cc/tabs/b/beatles/being_for_the_nenefit_of_mr_kite_tab.html ]
1||--------------------------------------|
2||--------------------------------------|
3||7-7-7-7-6-6-----5-5-5-5-4-4-----------|
4||------------7-7-------------5-5-7-7-7-|
5||--------------------------------------|
6||--------------------------------------|

  -------------------------------------|
  -------------------------------------|
  ---7-7-7-7-6-6---5-5-5-5-4-4---4-4-4-|
  ---------------7-------------5-------|
  -------------------------------------|
  -------------------------------------|


  -----------------------------------------|
  --------------5-5------------------------|
  -4--------4-4-----4-4-5-5-----4-4-4------|
  ---5----------------------5-5-------5----|
  -----7-7------------------------------7--|
  -----------------------------------------|

  -----------------------------------|
  ----------------5--------5-------4-|
  -5-5-5-4--4-4-4---7--5-7---5-4-6---|
  -----------------------------------|
  -----------------------------------|
  -----------------------------------|


  ------------------------||
  ---5--------5-----------||
  -4---7--5-7---5-4-5-4---||
  ------------------------||
  ----------------------7-||
  ------------------------||
Comments