Beatles - Ask Me Why (into - Outro) Chords & Tabs

 

Ask Me Why (into - Outro) Chords & Tabs

Beatles Chords & Tabs

Version: 1 Type: Chords 0 ratings
1 star 2 stars 3 stars 4 stars 5 stars
comments

Ask Me Why (into - Outro) Chords

   
#----------------------------------PLEASE NOTE---------------------------------#
#This file is the author's own work and represents their interpretation of the #
#song. You may only use this file for private study, scholarship, or research. #
#------------------------------------------------------------------------------#

From: hertzberg@netcad.enet.dec.com (Marc Hertzberg (History: Love it or leave it!))


              Ask Me Why
          (Lennon/McCartney)

Intro:
[this little lick also used over some E chords during verses]

    E
-|-------------------
-|-------------------
-|-------------------
-|-----9--9----------
-|--7-----------7----
-|-----------7-------




Ending:
[ Tab from: http://www.guitartabs.cc/tabs/b/beatles/ask_me_why_into_outro_crd.html ]
           G#m                A    E           A
-|-----------------------------------------------------|
-|-----------------------------------------------------|
-|-----------------------------------------------------|
-|------------------------------------9--9-------------|
-|---------------------------------7-----------7-------|
-|------------------------------------------7----------|
  And I'm always ...

    E           A       G#m
-|----------------------------------------------|
-|--------------------------4--4----------------|
-|--------------------------------4--4--4--4----|
-|-----9--9-----------------------------6--6----|
-|--7-----------7-------------------------------|
-|-----------7-----------4----------------------|
                you


Beatles Tab by Marc Hertzberg
Digital Equipment Corporation
hertzberg@netcad.enet.dec.com
Comments