Beatles - And Your Bird Can Sing Chords & Tabs

 

And Your Bird Can Sing Chords & Tabs

Beatles Chords & Tabs

Version: 11 Type: Tab 0 ratings
1 star 2 stars 3 stars 4 stars 5 stars
comments

And Your Bird Can Sing Tab

   
AND YOUR BIRD CAN SING (LENNON & MCCARTNEY)

This version essentially has the same notes as my earlier version
but uses different strings to make it easier to play.


Solo 1: (with fingering indicated)
    4 2 2 2 2 1 2  1 1   1 1 1 1 2   1 1 1   1 2     2
  1 4 3 3 3 3 1 3  1 1 1 3 2 3 3 3   2 2 2   2 1 3 4 1 3  1 4 3
E
e-----------------|----------------|-4-4-4-|-4------------------|
B---9-7-5-7-5-4-5-|4-2-0---------5-|-5-5-5-|-5-5-----5----------|
G---9-8-6-8-6-4-6-|4-2-1-2-1-2-4-6-|-------|---4-----4-h6-4-----|
D-----------------|------4-2-4-6---|-------|-----6-7--------7-6-|
A-7---------------|----------------|-------|--------------------|
E-----------------|----------------|-------|--------------------|

E
You tell me that you've got every thing you want and your bird can sing
                  F#m   A             E
But you don't get me.    You don't get  me.

Fill riff:
e------------------|
B-5-----5----------|
G-4-----4-h6-4-----|
D---6-7--------7-6-|
A------------------|
E------------------|

E
You say you've seen seven wonders and your bird is green
                  F#m   A             E
But you can't see me.    You can't see  me.

Bridge:
G#m                  G+                 B
When your prize po---sessions           start to weigh you 
e---------4---------|--------3---------|--------2----------|
B------4------4-----|-----4------4-----|-----4-------4-----|
G---4-----------4---|---4----------4---|---4-----------4---|
D-6---------------6-|-5--------------5-|-4---------------4-|
A-------------------|------------------|-------------------|
E-------------------|------------------|-------------------|

C#m                 E                   F#m
down                Look in my di-------rection     I'll be
e--------4---------|--------0----------|--------2----------|
B-----5------5-----|-----0-------0-----|-----2-------2-----|
G---6--------------|---1-----------1---|---2-----------2---|
D-6------------6---|-2---------------2-|-4---------------4-|
A------------------|-------------------|-------------------|
E------------------|-------------------|-------------------|
[ Tab from: http://www.guitartabs.cc/tabs/b/beatles/and_your_bird_can_sing_tab_ver_11.html ]
                    B
'round     I'll be 'round
e--------2---------|-----------------|
B-----2------2-----|-------7---------|
G---2----------2---|-----8-----8-----|
D-4--------------2-|---9---------9---|
A------------------|-9-------------9-|
E------------------|-----------------|

Solo: repeat solo 1 then play solo 2.

Solo 2:
F#m                A                  E
e-2-4-5-7-5-4-2-0-|---0-2-4-5-7-9-11-|-12-12-12-|-------|
B-----------------|-4----------------|--9--9--9-|-9-----|
G-2-4-5-7-5-4-2-0-|---0-2-4-5-7-9-11-|----------|-9-----|
D-----------------|-4----------------|----------|---9---|
A-----------------|------------------|----------|-----7-|
E-----------------|------------------|----------|-------|

2nd bridge: (play same as 1st bridge)
G#m               G+      B                 C#m
When your bird is broken  will it bring you down?
E          F#m                              B
You may be awoken   I'll be 'round I'll be 'round

Verse:
E
Tell me that you've heard every sound there is
                                           F#m
And your bird can swing but you can't hear me
A              E
 You can't hear  me.

Solo: repeat solo 1, then solo 2, then play end solo.

End Solo:
E                                                               A
e---12-11-9-11-9-7-9-|---12-11-9-11-9-7-9-|---12-11-9-11-9-7-9-|-0-|
B----9---------------|----9---------------|----9---------------|-2-|
G------11-9-11-9-8-9-|------11-9-11-9-8-9-|------11-9-11-9-8-9-|-2-|
D--------------------|--------------------|--------------------|-2-|
A-7------------------|-7------------------|-7------------------|-0-|
E--------------------|--------------------|--------------------|---|

Alternate End Solo: (easier to play but doesn't sound as good)
e-----------------|-----------------|-----------------|-0-|
B---9-7-5-7-5-4-5-|---9-7-5-7-5-4-5-|---9-7-5-7-5-4-5-|-2-|
G---9-8-6-8-6-4-6-|---9-8-6-8-6-4-6-|---9-8-6-8-6-4-6-|-2-|
D-----------------|-----------------|-----------------|-2-|
A-7---------------|-7---------------|-7---------------|-0-|
E-----------------|-----------------|-----------------|---|


When playing the bridges, just finger the indicated bar chords
and pick up and down the strings. Don't mute the notes. 

At the end of solo 2, just play the middle notes of a high E bar chord
and don't mute.

Tabbed by Bruce51.


Comments