Beatles - And I Love Her Chords & Tabs

 

And I Love Her Chords & Tabs

Beatles Chords & Tabs

Version: 3 Type: Tab 0 ratings
1 star 2 stars 3 stars 4 stars 5 stars
comments

And I Love Her Tab

The Beatles
And I Love Her
Tabbed By Luis Arinaga



Intro:
-------------------------------------------------------
-------------------------------------------------------
-------------------------------------------------------
---2-1---------------2-1-----------2-1-----------------
-2-----4-----------2-----4-------2-----4----------------
--------------------------------------------------------

Verse:
------9----------9---------9--------9---------9----------9-------------
---10---10----10---10----9---9----9---9----10---10----10---10----------
-11--------11----------9-------9---------11--------11------------------
-----------------------------------------------------------------------
-----------------------------------------------------------------------
-----------------------------------------------------------------------


-----9-------9---------9----------9--------9-------9--------------
---9---9---9---9----10---10----10---10---9---9---9---9------------
-9-------9-------11---------11---------9-------9------------------
------------------------------------------------------------------
------------------------------------------------------------------
------------------------------------------------------------------

[ Tab from: http://www.guitartabs.cc/tabs/b/beatles/and_i_love_her_tab_ver_3.html ]
-------9---------9-----------11----------11------------
----10---10---10---10-----10----10----10-----10--------
--9---------9----------11----------11------------------
-------------------------------------------------------
-------------------------------------------------------
-------------------------------------------------------


-----9-------9--------9----------------
---9---9---9---9----9---9---9----------
-9-------9--------9-------9------------
---------------------------------------
---------------------------------------
---------------------------------------


Solo:
--------------------------------------
------------5----3--3s(6)-------------
-------2-3----------------------------
---5----------------------------------
--------------------------------------
--------------------------------------


--------------------------------
------------5--5s(3)------------
-----2--3-----------------------
--5-----------------------------
--------------------------------
--------------------------------


-----------------------------------
------------5--3---3s(6)-----------
-----2--3--------------------------
---5-------------------------------
-----------------------------------
-----------------------------------


---------------------------------
---6-----------------------------
------7--------------------------
---------8---7--7s(5)------------
---------------------------------
---------------------------------


------------------------------------------------
------------------------------------------------
---------------2--------------------------------
-----------0------------------------------------
---3---3------------3-----0---------------------
---------------------------------3--1---1s(3)---
Comments