Beatles - And I Love Her (solo) Chords & Tabs

 

And I Love Her (solo) Chords & Tabs

Beatles Chords & Tabs

Version: 1 Type: Tab 0 ratings
1 star 2 stars 3 stars 4 stars 5 stars
comments

And I Love Her (solo) Tab

#----------------------------------PLEASE NOTE---------------------------------#
#This file is the author's own work and represents their interpretation of the #
#song. You may only use this file for private study, scholarship, or research. #
#------------------------------------------------------------------------------##
Beatles
And I Love Her(solo)
A Hard Days Night(this cd rules)
Standard tuining
By:sum41rules
 
/=slide
p=pick
~=let ring
[ Tab from: http://www.guitartabs.cc/tabs/b/beatles/and_i_love_her_solo_tab.html ]
G----------9---7---10--------9-----7---------9--7/10p~~~------------
D--5--7--8------------5--7-8---------5--7--8------------------------
A-------------------------------------------------------------------
E-------------------------------------------------------------------

G------10---7-------------------------------------------------------
D----------------8-----7-----5-------------7------------------------
A---------------------------------33----5------3--------------------
E---------------------------------------------------5-3-1-3---------

That's it.    George Harrison ROCKS!!!

Comments