Beatles - And I Love Her Chords & Tabs

 

And I Love Her Chords & Tabs

Beatles Chords & Tabs

Version: 5 Type: Bass Tab 0 ratings
1 star 2 stars 3 stars 4 stars 5 stars
comments

And I Love Her Bass Tab

   
As with most of my tabs, I try to keep the lines linear so the rhythm is visible as well 
as the notes. When you get above the 9th fret, an "A" represents the 10th fret, a "B" 
the 11th, and so on.


[INTRO]
           F#m      F#m      E        E
G:--------|--------|--------|--------|--------|
D:--------|--------|--------|--------|--------|
A:--------|9--99---|9--99---|7--77---|7--77---|
E:--------|--------|--------|--------|--------|

[VERSE]

  F#m          C#m            F#m            C#m
    I give her all my love      That's all I do
  F#m          C#m            A                 B7            E          E
    And if you saw my love      You'd love her, too         I love her

  F#m      C#m      F#m      C#m      F#m      C#m
G:--------|--------|--------|--------|--------|--------|
D:--------|--------|--------|--------|--------|--------|
A:9--99---|--------|9--99---|--------|9--99---|--------|
E:--------|9--99---|--------|9--99---|--------|9--99---|

  A        B7       E        E
G:--------|--------|--------|--------|
D:--------|--------|---9----|---9----|
A:---4--7-|---6--9-|7-------|7-------|
E:5-------|7-------|------7-|------7-|

[VERSE]
  F#m            C#m            F#m         C#m
    She gives me everything       And tenderly
  F#m           C#m             A               B7            E          E
    The kiss my lover brings      She brings to me      And I love her

  F#m      C#m      F#m      C#m      F#m      C#m
G:--------|--------|--------|--------|--------|--------|
D:--------|--------|--------|--------|--------|--------|
A:9--99---|--------|9--99---|--------|9--99---|--------|
E:--------|9--99---|--------|9--99---|--------|9--99---|

  A        B7       E        E
G:--------|--------|--------|--------|
D:--------|--------|---9----|---9----|
A:---4--7-|---6--9-|7-------|7-----76|
E:5-------|7-------|------7-|-----7--|

[BRIDGE]
  C#m           B         C#m           Abm
    A love like ours        Could never die
  C#m          Abm                 B7
    As long as I          Have you near me
[ Tab from: http://www.guitartabs.cc/tabs/b/beatles/and_i_love_her_btab_ver_5.html ]
  C#m      B        C#m      Abm      C#m      Abm      B7       B7
G:--------|--------|--------|--------|--------|--------|--------|--------|
D:--------|--------|--------|6--66-6-|--------|6--66-6-|--------|--------|
A:4--44-4-|--------|4--44-4-|--------|4--44-4-|--------|--------|--------|
E:--------|7--77-7-|--------|--------|--------|--------|7--7--7-|7--7--7-|

[VERSE]
  F#m              C#m                  F#m           C#m
    Bright are the stars that shine       Dark is the sky
  F#m           C#m             A            B7            E          E
    I know this love of mine      Will never die     And I love her

  F#m      C#m      F#m      C#m      F#m      C#m
G:--------|--------|--------|--------|--------|--------|
D:--------|--------|--------|--------|--------|--------|
A:9--99---|--------|9--99---|--------|9--99---|--------|
E:--------|9--99---|--------|9--99---|--------|9--99---|

  A        B7       E        E
G:--------|--------|--------|--------|
D:--------|--------|---9----|---9----|
A:---4--7-|---6--9-|7-------|7-------|
E:5-------|7-------|------7-|-----77-|

[INSTRUMENTAL]
  Gm       Dm       Gm       Dm       Gm       Dm
G:--------|--------|--------|--------|--------|--------|
D:--------|--------|--------|--------|--------|--------|
A:A--AA---|--------|A--AA---|--------|A--AA---|--------|
E:--------|A--AA---|--------|A--AA---|--------|A--AA---|

  Bb       C7       F        F
G:--------|--------|--------|--------|
D:--------|--------|---A----|---A----|
A:---88---|---AA---|8------7|8-----A8|
E:6-----6-|8-----8-|------8-|--------|

[VERSE]
  Gm               Dm                   Gm            Dm
    Bright are the stars that shine       Dark is the sky
  Gm            Dm              Bb            C7            F          F
    I know this love of mine      Will never die     And I love her

  Gm       Dm       Gm       Dm       Gm       Dm
G:--------|--------|--------|--------|--------|--------|
D:--------|--------|--------|--------|--------|--------|
A:A--AA---|--------|A--AA---|--------|A--AA---|--------|
E:--------|A--AA---|--------|A--AA---|--------|A--AA---|

  Bb       C7       F        F
G:--------|--------|--------|--------|
D:--------|--------|---A----|---A----|
A:---5--8-|---7--A-|8------7|8-----A8|
E:6-------|8-------|------8-|--------|

[CODA]
  Gm       Gm       F        F        Gm       Gm       D (let ring)
G:--------|--------|--------|--------|--------|--------|--------|--------|
D:--------|--------|--------|--------|--------|--------|0~~~~~~~~~~~~~~~~|
A:A--AA---|A--AA---|8--88---|8--88---|A--AA---|A--AA---|--------|--------|
E:--------|--------|--------|--------|--------|--------|A~~~~~~~~~~~~~~~~|

Tabbed by Michael Oxner
moxner@nbnet.nb.ca
Updated August 10th, 2012
Comments