Beatles - And I Love Her Chords & Tabs

 

And I Love Her Chords & Tabs

Beatles Chords & Tabs

Version: 2 Type: Bass Tab 0 ratings
1 star 2 stars 3 stars 4 stars 5 stars
comments

And I Love Her Bass Tab

|----------------|----------------|----------------|-----------------|
|----------------|----------------|----------------|-----------------|
|----------------|-4--4-4--4--4-4-|----------------|-4--4-4--4--4-4--|
|-2--2-2--2--2-2-|----------------|-2--2-2--2--2-2-|-----------------|


|---------|---------|---------|---------|----------|----------------|
|---------|---------|---------|---------|----------|----------------|
|---------|-4--4-4--|---------|-4--4-4--|-4-0--0-0-|----------------|
|-2--2-2--|---------|-2--2-2--|---------|----------|-4-2-2-2-0--0-0-|

|---------|---------|---------|---------|----------|----------------|
|---------|---------|---------|---------|----------|----------------|
|---------|-4--4-4--|---------|-4--4-4--|-4-0--0-0-|----------------|
|-2--2-2--|---------|-2--2-2--|---------|----------|-4-2-2-2-0--0-0-|
[ Tab from: http://www.guitartabs.cc/tabs/b/beatles/and_i_love_her_btab_ver_2.html ]
|---------|---------|---------|---------|---------|
|---------|---------|---------|---------|---------|
|---------|-2--2-2--|---------|-2--2-2--|---------|
|-4--4-4--|---------|-4--4-4--|---------|-2--2-2--|

|---------|---------|---------|---------|----------|----------------|
|---------|---------|---------|---------|----------|----------------|
|---------|-5--5-5--|---------|-5--5-5--|-5-1--1-1-|----------------|
|-3--3-3--|---------|-3--3-3--|---------|----------|-5-3-3-3-1--1-1-|

|---------|---------|---------|---------|----------|----------------|
|---------|---------|---------|---------|----------|----------------|
|---------|-5--5-5--|---------|-5--5-5--|-5-1--1-1-|----------------|
|-3--3-3--|---------|-3--3-3--|---------|----------|-5-3-3-3-1--1-1-|

|--------|---------|---------|---------|---------------|----------------|--------------|-----|
|--------|---------|---------|---------|---------------|----------------|--------------|-----|
|--------|-5--5-5--|---------|-5--5-5--|---------------|-5--5-5--5--5-5-|--------------|-5---|
|3--3-3--|---------|-3--3-3--|---------|-3--3-3--3-3-3-|----------------|3--3-3--3-3-3-|-----|
Comments