Beatles - And I Love Her Chords & Tabs

 

And I Love Her Chords & Tabs

Beatles Chords & Tabs

Version: 1 Type: Bass Tab 1 rating
1 star 2 stars 3 stars 4 stars 5 stars
comments

And I Love Her Bass Tab

AND I LOVE HER (Bass tab)
--------------
(Lennon/McCartney)
Album: A Hard Day's Night
Tabbed by: Kroppkakan (kroppkakan18@hotmail.com)

 
  INTRO
 |------------------------|------------------------|------------------------|
 |4--------4--4-----------|4--------4--4-----------|2--------2--2-----------|
 |------------------------|------------------------|------------------------|
 |------------------------|------------------------|------------------------|
  ^     ^     ^     ^      ^     ^     ^     ^      ^     ^     ^     ^
                           VERSE 1
 |------------------------|------------------------|------------------------|
 |2--------2--2-----------|4--------4--4-----------|------------------------|
 |------------------------|------------------------|4--------4--4-----------|
 |------------------------|------------------------|------------------------|
  ^     ^     ^     ^      ^     ^     ^     ^      ^     ^     ^     ^

 |------------------------|------------------------|------------------------|
 |4--------4--4-----------|------------------------|4--------4--4-----------|
 |------------------------|4--------4--4-----------|------------------------|
 |------------------------|------------------------|------------------------|
  ^     ^     ^     ^      ^     ^     ^     ^      ^     ^     ^     ^
                                                    
 |------------------------|---------6-----9--------|---------8-----11-------|
 |------------------------|7-----------------------|9-----------------------|
 |4--------4--4-----------|------------------------|------------------------|
 |------------------------|------------------------|------------------------|
  ^     ^     ^     ^      ^     ^     ^     ^      ^     ^     ^     ^
                                                    VERSE 2
 |------------------------|------------------------|------------------------|
 |2--------2--2--------1--|2-----------------2-----|4--------4--4-----------|
 |------------------2-----|---------2--------------|------------------------|
 |------------------------|------------------------|------------------------|
  ^     ^     ^     ^      ^     ^     ^     ^      ^     ^     ^     ^

 |------------------------|------------------------|------------------------|
 |------------------------|4--------4--4-----------|------------------------|
 |4--------4--4-----------|------------------------|4--------4--4-----------|
 |------------------------|------------------------|------------------------|
  ^     ^     ^     ^      ^     ^     ^     ^      ^     ^     ^     ^

 |------------------------|------------------------|---------6-----9--------|
 |4--------4--4-----------|------------------------|7-----------------------|
 |------------------------|4--------4--4-----------|------------------------|
 |------------------------|------------------------|------------------------|
  ^     ^     ^     ^      ^     ^     ^     ^      ^     ^     ^     ^

 |---------8-----11-------|------------------------|------------------------|
 |9-----------------------|2--------2--2--------1--|2-----------------2--1--|
 |------------------------|------------------2-----|---------2-----2--------|
 |------------------------|------------------------|------------------------|
  ^     ^     ^     ^      ^     ^     ^     ^      ^     ^     ^     ^
  BRIDGE
 |------------------------|------------------------|------------------------|
 |------------------------|------------------------|------------------------|
 |4--------4--------4-----|2--------2--------2-----|4--------4--------4-----|
 |------------------------|------------------------|------------------------|
  ^     ^     ^     ^      ^     ^     ^     ^      ^     ^     ^     ^

 |------------------------|------------------------|------------------------|
 |------------------------|------------------------|------------------------|
 |------------------------|4--------4--------4-----|------------------------|
 |4--------4--------4-----|------------------------|4--------4--------4-----|
  ^     ^     ^     ^      ^     ^     ^     ^      ^     ^     ^     ^
                                                    VERSE 3
 |------------------------|------------------------|------------------------|
 |------------------------|------------------------|4--------4--4-----------|
 |2--------2--------2-----|2--------2--------2-----|------------------------|
 |------------------------|------------------------|------------------------|
  ^     ^     ^     ^      ^     ^     ^     ^      ^     ^     ^     ^
[ Tab from: http://www.guitartabs.cc/tabs/b/beatles/and_i_love_her_btab.html ]
 |------------------------|------------------------|------------------------|
 |------------------------|4--------4--4-----------|------------------------|
 |4--------4--4-----------|------------------------|4--------4--4-----------|
 |------------------------|------------------------|------------------------|
  ^     ^     ^     ^      ^     ^     ^     ^      ^     ^     ^     ^

 |------------------------|------------------------|---------6-----9--------|
 |4--------4--4-----------|------------------------|7-----------------------|
 |------------------------|4--------4--4-----------|------------------------|
 |------------------------|------------------------|------------------------|
  ^     ^     ^     ^      ^     ^     ^     ^      ^     ^     ^     ^

 |---------8-----11-------|------------------------|------------------------|
 |9-----------------------|2--------2--2--------1--|2-----------------2-----|
 |------------------------|------------------2-----|---------2--------------|
 |------------------------|------------------------|------------------------|
  ^     ^     ^     ^      ^     ^     ^     ^      ^     ^     ^     ^
  SOLO
 |------------------------|------------------------|------------------------|
 |5--------5--5-----------|------------------------|5--------5--5-----------|
 |------------------------|5--------5--5-----------|------------------------|
 |------------------------|------------------------|------------------------|
  ^     ^     ^     ^      ^     ^     ^     ^      ^     ^     ^     ^

 |------------------------|------------------------|------------------------|
 |------------------------|5--------5--5-----------|------------------------|
 |5--------5--5-----------|------------------------|5--------5--5-----------|
 |------------------------|------------------------|------------------------|
  ^     ^     ^     ^      ^     ^     ^     ^      ^     ^     ^     ^

 |------------------------|------------------------|------------------------|
 |8-----------------8-----|7--------5--------7-----|3--------------------2--|
 |---------8--------------|------------------------|---------3--------3-----|
 |------------------------|------------------------|------------------------|
  ^     ^     ^     ^      ^     ^     ^     ^      ^     ^     ^     ^
                           VERSE 4
 |------------------------|------------------------|------------------------|
 |3-----------------3-----|5--------5--5-----------|------------------------|
 |---------3--------------|------------------------|5--------5--5-----------|
 |------------------------|------------------------|------------------------|
  ^     ^     ^     ^      ^     ^     ^     ^      ^     ^     ^     ^

 |------------------------|------------------------|------------------------|
 |5--------5--5-----------|------------------------|5--------5--5-----------|
 |------------------------|5--------5--5-----------|------------------------|
 |------------------------|------------------------|------------------------|
  ^     ^     ^     ^      ^     ^     ^     ^      ^     ^     ^     ^

 |------------------------|---------7-----10-------|---------9-----12-------|
 |------------------------|8-----------------------|10----------------------|
 |5--------5--5-----------|------------------------|------------------------|
 |------------------------|------------------------|------------------------|
  ^     ^     ^     ^      ^     ^     ^     ^      ^     ^     ^     ^
                                                    OUTRO
 |------------------------|------------------------|------------------------|
 |3--------------------2--|3-----------------3-----|5--------5--5-----------|
 |---------3--------3-----|---------3--------------|------------------------|
 |------------------------|------------------------|------------------------|
  ^     ^     ^     ^      ^     ^     ^     ^      ^     ^     ^     ^

 |------------------------|------------------------|------------------------|
 |5--------5--5-----------|3--------3--3-----------|3--------3--3-----------|
 |------------------------|------------------------|------------------------|
 |------------------------|------------------------|------------------------|
  ^     ^     ^     ^      ^     ^     ^     ^      ^     ^     ^     ^
  
 |------------------------|------------------------|------------------------|
 |5--------5--5-----------|5--------5--5-----------|------------------------|
 |------------------------|------------------------|5-----------------------|
 |------------------------|------------------------|------------------------|
  ^     ^     ^     ^      ^     ^     ^     ^      ^     ^     ^     ^
Comments