Beatles - Across The Universe (intro) Chords & Tabs

 

Across The Universe (intro) Chords & Tabs

Beatles Chords & Tabs

Version: 1 Type: Chords 0 ratings
1 star 2 stars 3 stars 4 stars 5 stars
comments

Across The Universe (intro) Chords

   
rtist: The Beatles

Song: Across The Universe (Album Version)
Music & Lyrics By: Lennon and McCartney
Album:Let It Be

Tabbed By:  Nicholas Kent (nk_uofg@hotmail.com)
Intro Tabbed By: Chris (cts@mail.utexas.edu)

Hey, whats up everyone?  This is my first tab attempt, so bare with me here. 
  I recently heard a cover to this Beatles song which made me want to learn 
the present versions were all wrong.  I recently saw an old interview (from 
the 80's) with Paul McCartney and he was going through the chord 
progressions for various Beatles songs and this happened to be one of them.  
So......here are the correct chords (I think Paul is right considering he 
wrote the song) and intro (not to sure about the intro, but I can guarentee 
the chords are correct)

Note:  I took the intro from previous tab attempts cause it's the closest 
I've heard so far, but any corrections are welcome.

[ Tab from: http://www.guitartabs.cc/tabs/b/beatles/across_the_universe_intro_crd.html ]
*Standard Tuning*
(I think the original song is played in C# or their is a capo being used, 
but I don't have one...... so figure out where to put it yourself)

INTRO:

|--2-----/10-----9--7--5-----------------------------------------------------
|------------------------7---2--2--2--2--2--2--2--2--------------2-----------
|--2-----/11-----9--7--6-----2--4--2--4--2--4--2--4--2--4--2--4--2--4--2--4--
|-----0-------0--------------4--4--4--4--4--4--4--4--2--2--2--2--2--2--2--2--
|----------------------------x--x--x--x--x--x--x--x--0-----0-----0-----0-----
|----------------------------2-----2-----2-----2-----------------------------

CHORD CHART:

    D    F#m   Em7    A    A7    Gm   Em7/A  G/D
E---x-----x-----0-----x-----x-----x-----x-----x
A---x-----x-----2-----0-----0-----x-----0-----x
D---0-----4-----2-----2-----2-----5-----2-----0
G---2-----2-----0-----2-----0-----3-----0-----0
B---3-----2-----3-----2-----2-----3-----3-----0
E---2-----2-----3-----0-----0-----3-----0-----3



**(Repeat Chords Exactly Next Time Through)**
Comments