Beatles - A Hard Days Night Chords & Tabs

 

A Hard Days Night Chords & Tabs

Beatles Chords & Tabs

Version: 2 Type: Bass Tab 0 ratings
1 star 2 stars 3 stars 4 stars 5 stars
comments

A Hard Days Night Bass Tab

   
It's been a hard day's night...

G|--------------------------------------------------------------------------|
D|--------------------------------------3-3-3-3-3-3-3-3---------------------|
A|-----------3-3-3----------------------------------------------------------|
E|-3-3-3-3-----------3-3-3-3-3-3-3-3-3--------------------3-3-3-3-3-3-3-3---|x2         


But when I get home to you...

G|-------------------------------------------------------------|
D|-------------------------------------------------------------|
A|-3--3--3---3-3-5--5--5---5-5--------3-3-3--------------------|
E|------------------------------3--3----------3---3--3--3------|


Ya know i work all day.....

G|------------------------------------------------------------------------|
D|------------------------------------3-3-3-3-3-3-3-3---------------------|
A|----------3-3-3---------------------------------------------------------|
E|-3-3-3-3----------3-3-3-3-3-3-3-3-3-------------------3-3-3-3-3-3-3-3---|x2   


So why on earth should i moan...

G|---------------------------------------------------------------|
D|---------------------------------------------------------------|
A|-3--3--3---3-3-5--5--5---5-5----------3-3-3--------------------|
E|-------------------------------3--3-----------3---3--3--3------|


When I'm home...

G|--------------------------------------------------------|
D|--------------------------------------------------------|
A|--2--2--2--2--------------2--2--2--2--2--2--2--2--------|
E|--------------0--0--0--0--------------------------------|

G|---------------------------------------------------------|
D|---------------------------------------------------------|
A|---------------------------3--3--3--3-3-5--5--5--5-------|
E|--3--3--3--3--0--0--0--0---------------------------------|


It's been a hard day's night...
[ Tab from: http://www.guitartabs.cc/tabs/b/beatles/a_hard_days_night_btab_ver_2.html ]
G|------------------------------------------------------------------------|
D|------------------------------------3-3-3-3-3-3-3-3---------------------|
A|----------3-3-3---------------------------------------------------------|
E|-3-3-3-3----------3-3-3-3-3-3-3-3-3-------------------3-3-3-3-3-3-3-3---|x2   


But when I get home to you...

G|---------------------------------------------------------------|
D|---------------------------------------------------------------|
A|-3--3--3---3-3-5--5--5---5-5--------3-3-3----------------------|
E|-----------------------------3--3-------------3---3--3--3------|


So why on earth should i moan...

G|--------------------------------------------------------------|
D|--------------------------------------------------------------|
A|-3--3--3---3-3-5--5--5---5-5---------3-3-3--------------------|
E|-------------------------------3--3----------3---3--3--3------|


When I'm home...

G|----------------------------------------------------------|
D|----------------------------------------------------------|
A|--2--2--2--2----------------2--2--2--2--2--2--2--2--------|
E|---------------0--0--0--0---------------------------------|

G|----------------------------------------------------------|
D|----------------------------------------------------------|
A|----------------------------3--3--3--3-3-5--5--5--5-------|
E|--3--3--3--3--0--0--0--0----------------------------------|


It's been a hard day's night...

G|-----------------------------------------------------------------------|
D|------------------------------------3-3-3-3-3-3-3-3--------------------|
A|----------3-3-3--------------------------------------------------------|
E|-3-3-3-3---------3-3-3-3-3-3-3-3-3-------------------3-3-3-3-3-3-3-3---|x2  


But when I get home to you...

G|-------------------------------------------------------------------|
D|-------------------------------------------------------------------|
A|-3--3--3---3-3-5--5--5---5-5----------3-3-3------------------------|
E|--------------------------------3--3----------------3---3--3--3----|  


G|--------------------------------|
D|--------------------------------|
A|--------3-3-3-------------------|
E|--3--3-----------3---3--3--3----| x2


End on a D.
Comments