Beat Happening - Hot Chocolate Boy Chords & Tabs

 

Hot Chocolate Boy Chords & Tabs

Beat Happening Chords & Tabs

Version: 1 Type: Tab 0 ratings
1 star 2 stars 3 stars 4 stars 5 stars
comments

Hot Chocolate Boy Tab

 HOT CHOCOLATE BOY

Intro:

E-1--3--5----1---3--5-------------------|
A-3--5--7----3---5--7-------------------|
D-3--5--7----3---5--7-------------------|
G-2--4--6----2---4--6-------------------|
B---------------------------------------|
E---------------------------------------|

Verse:
E------------------9----------------------------9------|
A------------------11---------------------------11-----|
D------------------11---------------------------11-----|
G------------------10---------------------------10-----|
B------------------------------------------------------|
E------------------------------------------------------|
   he's always waitin  ,gotta make a move to tell her

E-------------5--------------------7---|
A-------------7--------------------9---|
D-------------7--------------------9---|
G-------------6--------------------8---|
B--------------------------------------|
E--------------------------------------|
hot chocolate boy ,he's never had one,

E---------------7--------------------5-------|
A---------------9--------------------7-------|
D---------------9--------------------7-------|
G---------------8--------------------6-------|
B--------------------------------------------|
E--------------------------------------------|
 hot chocolate bad one,  hot choclate boy


E------------------9----------------------------9------|
A------------------11---------------------------11-----|
D------------------11---------------------------11-----|
G------------------10---------------------------10-----|
B------------------------------------------------------|
E------------------------------------------------------|
  walk by at midnight,thinking he could maybe see her

E-------------5--------------------7---------------------7---------|
A-------------7--------------------9---------------------9---------|
D-------------7--------------------9---------------------9---------|
G-------------6--------------------8---------------------8---------|
B------------------------------------------------------------------|
E-------------------------------------- ---------------------------|
  hot choclate boy,   he's never met one,  hot chocolate wet one,

E-------------5------|
A-------------7------|
D-------------7------|
G-------------6------|
B--------------------|
E--------------------|
  hot chocolate boy

Chorus:
E---------------5------7-------10-----------7------|
A---------------7------9-------12-----------9------|
D---------------7------9-------12-----------9------|
G---------------6------8-------11-----------8------|
B--------------------------------------------------|
E--------------------------------------------------|
   hot chocolate boy  -oy ,   Hot Chocolate  Boy

E--10-----------7----------5------------------|
A--12-----------9----------7------------------|
D--12-----------9----------7------------------|
G--11-----------8----------6------------------|
B---------------------------------------------|
E---------------------------------------------|
  Hot Chocolate Boy
[ Tab from: http://www.guitartabs.cc/tabs/b/beat_happening/hot_chocolate_boy_tab.html ]
Verse 2:
E------------------9----------------------------9------|
A------------------11---------------------------11-----|
D------------------11---------------------------11-----|
G------------------10---------------------------10-----|
B------------------------------------------------------|
E------------------------------------------------------|
    every girl yelling, wanting him to be the terror

E-------------5--------------------7---|
A-------------7--------------------9---|
D-------------7--------------------9---|
G-------------6--------------------8---|
B--------------------------------------|
E--------------------------------------|
   hot chocolate boy,  he's a sensation

E---------------7--------------------5------------5----|
A---------------9--------------------7------------7----|
D---------------9--------------------7------------7----|
G---------------8--------------------6------------6----|
B------------------------------------------------------|
E------------------------------------------------------|
   hot chocolate nation, hot chocolate boy


Chorus:
E---------------5------7-------10-----------7------|
A---------------7------9-------12-----------9------|
D---------------7------9-------12-----------9------|
G---------------6------8-------11-----------8------|
B--------------------------------------------------|
E--------------------------------------------------|
   hot chocolate boy  -oy ,  watchin       TV

E--10-------------------7------------------5-----|
A--12-------------------9------------------7-----|
D--12-------------------9------------------7-----|
G--11-------------------8------------------6-----|
B------------------------------------------------|
E------------------------------------------------|
 watching how tv has nobody and no one at all

Verse 3:
E------------------9----------------------------9------|
A------------------11---------------------------11-----|
D------------------11---------------------------11-----|
G------------------10---------------------------10-----|
B------------------------------------------------------|
E------------------------------------------------------|
  deep sweet and bitter,  spoon and a plate for breakfast

E-------------5--------------------7---------------------7---------|
A-------------7--------------------9---------------------9---------|
D-------------7--------------------9---------------------9---------|
G-------------6--------------------8---------------------8---------|
B------------------------------------------------------------------|
E-------------------------------------- ---------------------------|
   hot chocolate boy,  hot frosted creamy,  he was only dreamy

E-------------5-------------------7--------5---------|
A-------------7-------------------9--------7---------|
D-------------7-------------------9--------7---------|
G-------------6-------------------8--------6---------|
B----------------------------------------------------|
E----------------------------------------------------|
 hot chocolate boy, Hot Chocolate Boy

E---------------5------7-------10-----------7------|
A---------------7------9-------12-----------9------|
D---------------7------9-------12-----------9------|
G---------------6------8-------11-----------8------|
B--------------------------------------------------|
E--------------------------------------------------|
   hot chocolate boy  -oy ,   Hot Chocolate  Boy

E--10-----------7----------5------------------|
A--12-----------9----------7------------------|
D--12-----------9----------7------------------|
G--11-----------8----------6------------------|
B---------------------------------------------|
E---------------------------------------------|
  Hot Chocolate Boy      Hot Chocolate Boy
Comments