Beat Crusaders - Hit In The Usa Chords & Tabs

 

Hit In The Usa Chords & Tabs

Beat Crusaders Chords & Tabs

Version: 1 Type: Tab 0 ratings
1 star 2 stars 3 stars 4 stars 5 stars
comments

Hit In The Usa Tab

Hello i'm izzy,

This is my second tab and i am sure its going to be my longest ever!! Yup this is the
hit tune from the anime "beck", sung by the band Beat Crusaders from Japan. I'm positive
that it is 100% correct. Enjoy yourself!!!

Legend:

^
| = Strum once in the direction of arrow and let ring
|

> = Let ring

~ = Vibrato

() = ghost note

/ = Slide

^ = full bend

Guitar 1 : Distortion
Guitar 2 : Overdrive


*INTRO*

1. Guitar 1

  |--------------|-------------|
  |--------------|-------------|
  |-5-x----------|-------------|2x
  |-5-x-5-5--x-3-|--3--3-3/5-5-|
  |-3-x-5-5--x-3-|--3--3-3/5-5-|
  |-----3-3--x-1-|--1--1-1/3-3-|

   Guitar 2 mute

2. Guitar 1 repeat step 1 

   Guitar 2

  |-8--x-3-3--x-1-|--1--1-1/3-3--|
  |-8--x-3-3--x-1-|--1--1-1/3-3--|
  |-9--x-4-4--x-2-|--2--2-2/4-4--|2x
  |-10-x-5-5--x-3-|--3--3-3/5-5--|
  |-10-x-5-5--x-3-|--3--3-3/5-5--|
  |-8--x-3-3--x-1-|--1--1-1/3-3--|

3. Guitar 1
     
  |---------------|-------------|--------------|-------------|
  |---------------|-------------|--------------|--6-5--6--5--|
  |-5--x----------|-------------|--------------|-------------| 
  |-5--x-5-5--x-3-|--3--3-3/5-5-|--7>-------7--|-------------|
  |-3--x-5-5--x-3-|--3--3-3/5-5-|--7>-------7--|-------------|
  |------3-3--x-1-|--1--1-1/3-3-|--5>-------5--|-------------|

   Guitar 2

  |-8--x-3-3--x-1-|--1--1-1/3-3-|--5>-------5--|-------------|
  |-8--x-3-3--x-1-|--1--1-1/3-3-|--5>-------5--|--6-5--6--5--|
  |-9--x-4-4--x-2-|--2--2-2/4-4-|--6>-------6--|-------------|
  |-10-x-5-5--x-3-|--3--3-3/5-5-|--7>-------7--|-------------|
  |-10-x-5-5--x-3-|--3--3-3/5-5-|--7>-------7--|-------------|
  |-8--x-3-3--x-1-|--1--1-1/3-3-|--5>-------5--|-------------|



*Verse 1*

1. Guitar 1

    *.............P.M............*
  |-----------------|----------------|   |--------------|-------------|
  |-----------------|----------------|   |--------------|--6-5--6--5--|
  |-5-5-5-5---------|----------------|3x |--------------|-------------|
  |-5-5-5-5---------|-3-3-3-3-3/5--x-|   |--7>-------7--|-------------|
  |-3-3-3-3-5-5-5-5-|-3-3-3-3-3/5--x-|   |--7>-------7--|-------------|
  |---------3-3-3-3-|-1-1-1-1-1/3--x-|   |--5>-------5--|-------------|

   Guitar 2 Same as Guitar 1

2. Guitar 1 repeat step 1

   Guitar 2

  |-------------|-----------------|-------------|-----------------|
  |-------------|-----------------|-------------|-----------------|
  |-5---4-4---5-|--5---(0)--------|-5---4-4---5-|--5---(0)--------|
  |-------------|----------3/5--x-|-------------|----------3/5--x-|
  |-------------|----------3/5--x-|-------------|----------3/5--x-|
  |-------------|----------1/3--x-|-------------|----------1/3--x-|

  |-------------|-----------------|-------------|-------------|
  |-------------|-----------------|-------------|--6-5--6--5--|
  |-9---7-7---5-|--5---(0)--------|-------------|-------------|
  |-------------|----------3/5--x-|--7>-------7-|-------------|
  |-------------|----------3/5--x-|--7>-------7-|-------------|
  |-------------|----------1/3--x-|--5>-------5-|-------------|
   

*Chorus 1*

1. Guitar 1

  |--------------|-------------|   |-----------------|----------------|--------------|
  |--------------|-------------|   |-----------------|----------------|--------------|
  |-5-x----------|-------------|2x |-5-5-5-5---------|----------------|--------------|
  |-5-x-5-5--x-3-|--3--3-3/5-5-|   |-5-5-5-5---------|-3-3-3-3-3/5--x-|--7>-------7--|
  |-3-x-5-5--x-3-|--3--3-3/5-5-|   |-3-3-3-3-5-5-5-5-|-3-3-3-3-3/5--x-|--7>-------7--|
  |-----3-3--x-1-|--1--1-1/3-3-|   |---------3-3-3-3-|-1-1-1-1-1/3--x-|--5>-------5--|

  |-------------|  
  |-------------|
  |-------------|
  |-------------|
  |-------------|
  |-------------|

   Guitar 2

  |--------------|-------------|   |-----------------|----------------|------------------|
  |--------------|-------------|   |-----------------|----------------|------------------|
  |-5-x----------|-------------|2x |-5-5-5-5---------|----------------|-10-9--10-9--10-9-|
  |-5-x-5-5--x-3-|--3--3-3/5-5-|   |-5-5-5-5---------|-3-3-3-3-3/5----|------------------|
  |-3-x-5-5--x-3-|--3--3-3/5-5-|   |-3-3-3-3-5-5-5-5-|-3-3-3-3-3/5----|------------------|
  |-----3-3--x-1-|--1--1-1/3-3-|   |---------3-3-3-3-|-1-1-1-1-1/3----|------------------|

  |-----------------|
  |-----------------|
  |--10-9----10-9---|
  |-------10--------|
  |-----------------|
  |-----------------|


*Verse 2*

1. Guitar 1

    *.............P.M............*
  |-----------------|----------------|   |--------------|-------------|
  |-----------------|----------------|   |--------------|--6-5--6--5--|
  |-5-5-5-5---------|----------------|3x |--------------|-------------|
  |-5-5-5-5---------|-3-3-3-3-3/5--x-|   |--7>-------7--|-------------|
  |-3-3-3-3-5-5-5-5-|-3-3-3-3-3/5--x-|   |--7>-------7--|-------------|
  |---------3-3-3-3-|-1-1-1-1-1/3--x-|   |--5>-------5--|-------------|

   Guitar 2

  |-------------|   |-------------|-------------|-------------|-------------|
  |-------------|   |-------------|-------------|-------------|--6-5--6--5--|
  |--10----10---|4x |--12----12---|--12----12>--|-------------|-------------|
  |-------------|   |-------------|-------------|-------------|-------------|
  |-------------|   |-------------|-------------|-------------|-------------|
  |-------------|   |-------------|-------------|-------------|-------------|

2. Guitar 1 repeat step 1

   Guitar 2

  |----------------|   |---------------------|-----|-------------|
  |-13--13--13--13-|   |-13--13--13-17-20-22-|-20--|--6-5--6--5--| 
  |----------------|5x |---------------------|-----|-------------|
  |----------------|   |---------------------|-----|-------------|
  |----------------|   |---------------------|-----|-------------|
  |----------------|   |---------------------|-----|-------------|


*Chorus 2*

1. Guitar 1

  |--------------|-------------|   |-----------------|----------------|
  |--------------|-------------|   |-----------------|----------------|
  |-5-x----------|-------------|2x |-5-5-5-5---------|----------------|
  |-5-x-5-5--x-3-|--3--3-3/5-5-|   |-5-5-5-5---------|-3-3-3-3-3/5----|
  |-3-x-5-5--x-3-|--3--3-3/5-5-|   |-3-3-3-3-5-5-5-5-|-3-3-3-3-3/5----|
  |-----3-3--x-1-|--1--1-1/3-3-|   |---------3-3-3-3-|-1-1-1-1-1/3----|

  |------------|------------|
  |------------|------------|
  |------------|------------|
  |----6>------|----8>------|
  |----6>------|----8>------|
  |----4>------|----6>------|

   Guitar 2

  |--------------|-------------|   |-----------------|----------------|
  |--------------|-------------|   |-----------------|----------------|
  |-5-x----------|-------------|2x |-5-5-5-5---------|----------------|
  |-5-x-5-5--x-3-|--3--3-3/5-5-|   |-5-5-5-5---------|-3-3-3-3-3/5----|
  |-3-x-5-5--x-3-|--3--3-3/5-5-|   |-3-3-3-3-5-5-5-5-|-3-3-3-3-3/5----|
  |-----3-3--x-1-|--1--1-1/3-3-|   |---------3-3-3-3-|-1-1-1-1-1/3----|
[ Tab from: http://www.guitartabs.cc/tabs/b/beat_crusaders/hit_in_the_usa_tab.html ]
  |------------------|---------------------|
  |------------------|---------------------|
  |-8-X-X-8-X-X-8-8/-|-10-X-X-10-X-X-10-10-|
  |-6-X-X-6-X-X-6-6/-|--8-X-X-8--X-X--8-8--|
  |------------------|---------------------|
  |------------------|---------------------|


*Bridge*

1. Guitar 1

  |-------------------------|-----------------|-----------------|-----------------|
  |-------------------------|-----------------|-----------------|-----------------|
  |-------------------------|-----------------|-----------------|-----------------|
  |-10-10-10-10-10-10-10-10-|-8-8-8-8-8-8-8-8-|-6-6-6-6-6-6-6-6-|-5-5-5-5-8-8-8-8-|
  |-10-10-10-10-10-10-10-10-|-8-8-8-8-8-8-8-8-|-6-6-6-6-6-6-6-6-|-5-5-5-5-8-8-8-8-|
  |-8--8--8--8--8--8--8--8--|-6-6-6-6-6-6-6-6-|-4-4-4-4-4-4-4-4-|-3-3-3-3-6-6-6-6-|

   Guitar 2

  |--------------|-------------|------------|---------|
  |--------------|-------------|------------|---------|
  |--------------|-------------|------5-----|---------|
  |-10----10-----|-8--8-10--8--|-6--6----6--|-5--8----|
  |-10-10-----10-|-8-----------|-6----------|-5--8----|
  |--8-----------|-6-----------|-4----------|-3--6----|

2. Guitar 1

  |-------------------------|-----------------|-----------------|-----------------|
  |-------------------------|-----------------|-----------------|-----------------|
  |-------------------------|-----------------|-----------------|-----------------|
  |-10-10-10-10-10-10-10-10-|-8-8-8-8-8-8-8-8-|-6-6-6-6-6-6-6-6-|--6-6----6-6-----|
  |-10-10-10-10-10-10-10-10-|-8-8-8-8-8-8-8-8-|-6-6-6-6-6-6-6-6-|--6-6----6-6-----|
  |-8--8--8--8--8--8--8--8--|-6-6-6-6-6-6-6-6-|-4-4-4-4-4-4-4-4-|--4-4----4-4-----|

   Guitar 2 same as Guitar 1


*Riff 1 *

1. Guitar 1 

  |--------------|-------------|---------------|------------------|
  |--------------|-------------|---------------|------------------|
  |-5-x----------|-------------|-5-x------x-10-|--10--10-10/12-12-|
  |-5-x-5-5--x-3-|--3--3-3/5-5-|-5-x-5-5--x-10-|--10--10-10/12-12-|
  |-3-x-5-5--x-3-|--3--3-3/5-5-|-3-x-5-5--x-8--|--8---8---8/10-10-|
  |-----3-3--x-1-|--1--1-1/3-3-|-----3-3--x----|------------------|

   Guitar 2

  |-------------|-------------|-------------|-------------|
  |-------------|-------------|-------------|---------(3)/|
  |-------------|-------------|-------------|-------------|
  |-------------|-------------|-------------|-------------|
  |-------------|-------------|-------------|-------------|
  |-------------|-------------|-------------|-------------|

2. Guitar 1

  |--------------|-------------|   |-----------------|----------------|
  |--------------|-------------|   |-----------------|----------------|
  |-5-x----------|-------------|2x |-5-5-5-5---------|----------------|
  |-5-x-5-5--x-3-|--3--3-3/5-5-|   |-5-5-5-5---------|-3-3-3-3-3/5----|
  |-3-x-5-5--x-3-|--3--3-3/5-5-|   |-3-3-3-3-5-5-5-5-|-3-3-3-3-3/5----|
  |-----3-3--x-1-|--1--1-1/3-3-|   |---------3-3-3-3-|-1-1-1-1-1/3----|

  |-------------|-------------|
  |-------------|-------------|
  |-------------|-------------|
  |-6-----6-----|-8-----8-----|
  |---6-----6---|---8-----8---|
  |-----4-----4-|-----6-----6-|

   Guitar 2

  |--------------------|-------------------|---11---11-11---11-|-11-----11-11-------|
  |/8-8----8-8----8----|----8-8----8-8-----|-8----8-----8-8----|----8-8-------8-(8)-|
  |-----10^----10^--10-|-10^----10^----10^-|-------------------|--------------------|
  |--------------------|-------------------|-------------------|--------------------|
  |--------------------|-------------------|-------------------|--------------------|
  |--------------------|-------------------|-------------------|--------------------|

  |-----15----------16-17~|--16-15-14-13-----|-16-------16-------|-18-------18-------|
  |-16~----16~-13-16------|--------------16--|----16-------16----|----18-------18----|
  |-----------------------|------------------|-------13-------13-|-------15-------15-|
  |-----------------------|------------------|-------------------|-------------------|
  |-----------------------|------------------|-------------------|-------------------|
  |-----------------------|------------------|-------------------|-------------------|

3. Guitar 1     *.....Drum only: beating snare lip, until que with hi-hat once.....*

  |-----------|-----------|-----------|-----------|
  |-----------|-----------|-----------|-----------|
  |-----------|-----------|-----------|-----------| 
  |--10--x----|-----------|-----------|-----------|
  |--10--x----|-----------|-----------|-----------|
  |--8---x----|-----------|-----------|-----------|

   Guitar 2                                           

  |-----------|-----------|-----------|-----------|
  |--20-------|-----------|-----------|-----------|
  |--17-------|-----------|-----------|-----------|
  |-----------|-----------|-----------|-----------|
  |-----------|-----------|-----------|-----------|
  |-----------|-----------|-----------|-----------|


*Riff 2* (after que with hi-hat once as above)

1. Guitar 1

  |---^---|-------|-------|------------|---^---|-------|-------|
  |--5|---|---^---|---^---|------------|--5|---|---^---|-------|
  |--5|---|--4|---|--2|---|------------|--5|---|--4|---|-------|
  |--5|---|--5|---|--3|---|------------|--5|---|--5|---|--3>---|
  |--3|---|--5|---|--3|---|--/5--/7----|--3|---|--5|---|--3>---|
  |-------|--3|---|--1|---|------------|-------|--3|---|--1>---|

   Guitar 2

  |--12---|-------|-------|------------|--12---|-------|-------------|------|
  |-------|--12---|--10---|------------|-------|--12---|----------3/-|--/8--|
  |-------|-------|-------|------------|-------|-------|-------------|------|
  |-------|-------|-------|------------|-------|-------|--3>---------|------|
  |-------|-------|-------|------------|-------|-------|--3>---------|------|
  |-------|-------|-------|------------|-------|-------|--1>---------|------|


*Outro*

1. Guitar 1

  |---------------|-------------|
  |---------------|-------------|
  |-6--x----------|-------------|4x
  |-6--x-6-6--x-4-|--4--4-4/6-6-|
  |-4--x-6-6--x-4-|--4--4-4/6-6-|
  |------4-4--x-2-|--2--2-2/4-4-|

   Guitar 2 same as Guitar 1

2. Guitar 1

  |-----------------|-----------------|
  |-----------------|-----------------|
  |-6-6-6-6---------|-----------------|7x
  |-6-6-6-6-6-6-6-6-|-4-4-4-4-4/6-6-6-|
  |-4-4-4-4-6-6-6-6-|-4-4-4-4-4/6-6-6-|
  |---------4-4-4-4-|-2-2-2-2-2/4-4-4-|

   Guitar 2 same as Guitar 1

3. Guitar 1
                                                    ^
  |-------------|-------------|------------|-------4|----||
  |-------------|-------------|------------|-------6|----||
  |-------------|-------------|--6---------|--8-x--6|----||
  |--7----------|--9----------|--6---------|--8-x--6|----||
  |--7----------|--9----------|--4---------|--6-x--4|----||
  |--5----------|--7----------|------------|-------------||

   Guitar 2

  |-------------|-------------|--------19--|--21---------||
  |-----17------|-----19------|-----21-----|-------------||
  |--14----14---|--16----16---|--18--------|-------------||
  |-------------|-------------|------------|-------------||
  |-------------|-------------|------------|-------------||
  |-------------|-------------|------------|-------------||

*The End*
Comments