Beat - Mirror In The Bathroom Chords & Tabs

 

Mirror In The Bathroom Chords & Tabs

Beat Chords & Tabs

Version: 1 Type: Bass Tab 0 ratings
1 star 2 stars 3 stars 4 stars 5 stars
comments

Mirror In The Bathroom Bass Tab

                         Mirror in the bathroom
                                The beat
Tabbed by FeRg - ferg@iferguson48.freeserve.co.uk - easy song. simple to remember.



        this is the verse - all through                                 
G---||--------------------------------------------------|---------------
D---||--------------------------------------------------|---------------
A---||--------------2--3--2--3--------------5--5--5--5--|---------------
E---||--2--2--2--2--------------3--3--3--3--------------|---------------
                                                                        

                                                                        
G---------------------------------------------------|-----------|-------
D---------------------------------------------------|-----------|-------
A---------------2--3--2--3--------------------------|-----------|-------
E---2--2--2--2--------------3--3--3--3--5--5--5--5--|-----------|-------
                                                                        
[ Tab from: http://www.guitartabs.cc/tabs/b/beat/mirror_in_the_bathroom_btab.html ]
    bridge                                                              
G---------------------------|--------------------------|----------------
D---------------------------|--------------------------|----------------
A---------------2--2--5--5--|--------------0--0--3--3--|----------------
E---0--0--3--3--------------|--0--0--3--3--------------|----------------
                                                                        

                that's it  folks.                                       
G-----------------------------------------------------------------------
D-----------------------------------------------------------------------
A-----------------------------------------------------------------------
E-----------------------------------------------------------------------
                                                                        



========================================================================
==            Created with a demo version of BUCKET O' TAB            ==
==              tablature creation software for Windows               ==
==                   http://www.his.com/~gse/bucket                   ==
========================================================================

Comments