Beastie Boys - Tough Guy Chords & Tabs

 

Tough Guy Chords & Tabs

Beastie Boys Chords & Tabs

Version: 2 Type: Bass Tab 0 ratings
1 star 2 stars 3 stars 4 stars 5 stars
comments

Tough Guy Bass Tab

artist: beastie boys
song: tough guy 
tabbed by : carlos pino 
The intro 
G---------------------------- 
D---------------------------- 
A-------------------1-1-1-1-- 
E-1-1-1-1-4-4-4-4------------ 
[ Tab from: http://www.guitartabs.cc/tabs/b/beastie_boys/tough_guy_btab_ver_2.html ]
verse 
G-------------------------------------------------------- 
D-------------------------------------------------------- 
A------------------------1-1-1-1----------------1-1-0-0-- 
E--1-1-1-1-4-4-4-4-------------1-1-1-1-4-4-4-4----------- 

Play the above two times for verse 

 Chorus 
G--------------------------------------------------- 
D--------------------------------------------------- 
A-2-2-2-2-2-2-3-3-3-3-3-3--------------------------- 
E----------------------------------4-4-4-4-4-4-4-4-- 

bridge 
G------- 
D------- 
A---6\5- 
E------- 
Comments