Beastie Boys - Sure Shot Chords & Tabs

 

Sure Shot Chords & Tabs

Beastie Boys Chords & Tabs

Version: 1 Type: Tab 0 ratings
1 star 2 stars 3 stars 4 stars 5 stars
comments

Sure Shot Tab

#----------------------------------PLEASE NOTE--------------------------------#
#This file is the author's own work and represents their interpretation of the#
#song. You may only use this file for private study, scholarship, or research.#
#-----------------------------------------------------------------------------#

Date: Thu, 29 Jan 1998 02:52:06 -0800 (PST)
From: Richard Scothern 
Subject: Tab: Beastie_boys/sure_shot w/improvments!

>  Sure Shot by the Beastie Boys
>  Heres some tab for Sure Shot, the way coolest song from  ill
>  communication
>  
>  Synth. arranged for guitar
>  
>  Standard tuning
>  
> Riff 1
>  E|-----------------------------------|
>  B|-----------------------------------|
>  G|---6--8--6--6--8--8----------------|
>  D|---------------------8p7--6--5--4--|
>  A|-----------------------------------|
>  E|-----------------------------------| 
>  
> Riff 2 
>  E|-----------------------------------|
>  B|-----------------------------------|
>  G|---6--7--8--0-----0----------------|
>  D|---------------8-----8-------------|
>  A|-----------------------------------|
>  E|-------------------------HTTP/1.0 400 Cache Detected Error
Server: squid/1.1.10-nf/2.0.4
Date: Thu, 03 Aug 2000 13:13:29 GMT
Expires: Thu, 03 Aug 2000 13:15:29 GMT
Last-Modified: Thu, 03 Aug 2000 13:13:29 GMT
Content-Type: text/html
Content-Length: 1662
[ Tab from: http://www.guitartabs.cc/tabs/b/beastie_boys/sure_shot_tab.html ]

   
      CleanWeb: Site Blocked
      
   

   >">'>">'>



Blocked Site


CleanWeb

You tried to access http://mud.leaseyourmind.com/gtab/b/beastie_boys/sure_shot.tab. CleanWeb will not allow you to visit this site because it encountered a blocking code type 423 (Retrieval Aborted). This means that access to http://mud.leaseyourmind.com/gtab/b/beastie_boys/sure_shot.tab has been blocked because the document contained inappropriate words. If you believe this is in error, please let us know.

close
Trouble Playing ...
Comments