Beastie Boys - No Sleep Till Brooklyn Chords & Tabs

 

No Sleep Till Brooklyn Chords & Tabs

Beastie Boys Chords & Tabs

Version: 5 Type: Tab 0 ratings
1 star 2 stars 3 stars 4 stars 5 stars
comments

No Sleep Till Brooklyn Tab

sorry guys, i don*t have the solo on this but if i get it i*ll put it up


Drop low e down to d

r=let it ring

NO SLEEP TILL Brooklynnnn!

intro
|--------------|
|--------------|
|--------------|x4
|1-1-4-6r-8-4--|
|1-1-4-6r-8-4--|
|1-1-4-6r-8-4--|

Foot on the pedal never ever false metal
Engine running hotter than a boiling kettle
|-----|
|-----|
|-----|
|-1-1-|
|-1-1-|
|-1-1-|

My job's ain't a job it's a damn good time
City to city 
I'm running my rhymes
|----------|
|----------|
|----------|
|8r-4r-1-1-|
|8r-4r-1-1-|
|8r-4r-1-1-|
On location touring around the nation
Beastie Boys always on vacation
|----|
|----|
|----|
|1-1-|
|1-1-|
|1-1-|
Itchy trigger finger but a stable turntable
I do what I do best because 
I'm illing and able
|----------|
|----------|
|----------|
|8r-4r-1-1-|
|8r-4r-1-1-|
|8r-4r-1-1-|
Ain't no faking your money I'm taking
Going coast to coast watching all the girlies shaking
|----|
|----|
|----|
|1-1-|
|1-1-|
|1-1-|
While you're at the job working nine to five
The Beastie Boys at the Garden cold kickin' it live

|--------------|
|--------------|
|--------------|
|1-1-4-6r-8-4--|
|1-1-4-6r-8-4--|
|1-1-4-6r-8-4--|

No sleep 'til -

|--------------|
|--------------|
|--------------|
|1-1-4-6r-8-4--|
|1-1-4-6r-8-4--|          <-----|
|1-1-4-6r-8-4--|                |
Another plane another train |   |
Another bottle in the brain |--- play that again through these lyrics
Another girl another fight  |
Another drive all night     |
Our manager's crazy he always smokes dust
He's got his own room at the back of the bus
|-----|
|-----|
|-----|
|-1-1-|
|-1-1-|
|-1-1-|
Tour around the world you rock around the clock
Plane to hotel girls on the jock
|----------|
|----------|
|----------|
|8r-4r-1-1-|
|8r-4r-1-1-|
|8r-4r-1-1-|

We're thrashing hotels like it's going out of style
Getting paid along the way cause it's worth your while
|----|
|----|
|----|
|1-1-|
|1-1-|
|1-1-|
Four on the floor Adrock's out the door
M.C.A.'s in the back because he's skeezin' with a whore

|-----|
|-----|
|-----|
|-1-1-|
|-1-1-|
|-1-1-|
We got a safe in the trunk with money in a stack
With dice in the front and Brooklyn's in the back
|--------------|
|--------------|
|--------------|
|1-1-4-6r-8-4--|
|1-1-4-6r-8-4--|
|1-1-4-6r-8-4--|

No sleep 'til -

|--------------|
|--------------|
|--------------|
|1-1-4-6r-8-4--|
|1-1-4-6r-8-4--|
|1-1-4-6r-8-4--|
[ Tab from: http://www.guitartabs.cc/tabs/b/beastie_boys/no_sleep_till_brooklyn_tab_ver_5.html ]
|---------------------------------------------------------------|
|---------------------------------------------------------------|
|---------------------------------------------------------------|
|---1-------4--------------6-8-4----1-----4---------------6-8-4-|
|---1-------4--------------6-8-4----1-----4---------------6-8-4-|
|---1-------4--------------6-8-4----1-----4---------------6-8-4-|
 NO!  SLEEP!  TILL BROOKLYN!     NO! SLEEP! TILL BROOKLYN!
                                                     |-----|
Ain't seen the light since we started this band |--> |-----|if you have a
M.C.A. get on the mic my man                    |--> |-----|whammy bar,
|-----|                                              |-1r--|push it down
|-----|                                              |-1r--|on this part
|-----|                                              |-1r--|=P
|-1-1-|
|-1-1-|
|-1-1-|
Born and bred Brooklyn U.S.A.
They all me Adam Yauch but I'm M.C.A.
Like a lemon to a lime a lime to a lemon
I sip the def ale with all the fly women
|-----|
|-----|
|-----|
|-1-1-|
|-1-1-|
|-1-1-|

Got limos, arena, TV shows
Autograph pictures and classy hos
|-----|
|-----|
|-----|
|-1-1-|
|-1-1-|
|-1-1-|
Step off homes get out of my way
Taxing little girlies form here to L.A.
|-----|
|-----|
|-----|
|-1-1-|
|-1-1-|
|-1-1-|
Waking up before I get to sleep
Cause I'll be rocking this party eight days a week

|--------------|
|--------------|
|--------------|
|1-1-4-6r-8-4--|
|1-1-4-6r-8-4--|
|1-1-4-6r-8-4--|

No sleep 'til -

|--------------|
|--------------|
|--------------|
|1-1-4-6r-8-4--|
|1-1-4-6r-8-4--|
|1-1-4-6r-8-4--|

|---------------------------------------------------------------|
|---------------------------------------------------------------|
|---------------------------------------------------------------|
|---1-------4--------------6-8-4----1-----4---------------6-8-4-|
|---1-------4--------------6-8-4----1-----4---------------6-8-4-|
|---1-------4--------------6-8-4----1-----4---------------6-8-4-|
 NO!  SLEEP!  TILL BROOKLYN!     NO! SLEEP! TILL BROOKLYN!

|---------------------------------------------------------------|
|---------------------------------------------------------------|
|---------------------------------------------------------------|
|---1-------4--------------6-8-4----1-----4---------------6-8-4-|
|---1-------4--------------6-8-4----1-----4---------------6-8-4-|
|---1-------4--------------6-8-4----1-----4---------------6-8-4-|
 NO!  SLEEP!  TILL BROOKLYN!     NO! SLEEP! TILL BROOKLYN!

======here*s the solo part that i cant play, but in the background its this till the end======
|--------------|
|--------------|
|--------------|
|1-1-4-6r-8-4--| "no sleep till brooklyn" all the way to the end
|1-1-4-6r-8-4--|
|1-1-4-6r-8-4--|
Comments