Beastie Boys - No Sleep Till Brooklyn Chords & Tabs

 

No Sleep Till Brooklyn Chords & Tabs

Beastie Boys Chords & Tabs

Version: 3 Type: Tab 0 ratings
1 star 2 stars 3 stars 4 stars 5 stars
comments

No Sleep Till Brooklyn Tab

i have 2 ways to play this....which ever sounds best for u on your guitar go for it..
 this is my very first  tab so if u have any questions or commets please email me  
sk8r28sla@cs.com
=== means pause 
-------------------------------
-------------------------------
-------------------------------
-------------------------------
-33==6-8====8-6-33-------------
-11==4-6====6-4-11-------------

now here is the 2nd way

-------------------------------
-------------------------------
-------------------------------
-------------------------------
--44==79====97-44--------------
--22==57====75-22--------------
[ Tab from: http://www.guitartabs.cc/tabs/b/beastie_boys/no_sleep_till_brooklyn_tab_ver_3.html ]
Comments