Beastie Boys - Girls Chords & Tabs

 

Girls Chords & Tabs

Beastie Boys Chords & Tabs

Version: 2 Type: Tab 0 ratings
1 star 2 stars 3 stars 4 stars 5 stars
comments

Girls Tab

On the Beastie Boys tab list, this song was listed as Brass Monkey, but is actually
the part that sounds like the bell part of Girls.

Girls
Beatsie Boys

Intro
|1-1-----1-1---0-1-1-----1-1---0-1-1-----1-1---0-1|
|----1-1-----1-------1-1-----1-------1-1-----1----|
|-------------------------------------------------|
|-------------------------------------------------|
|-------------------------------------------------|
|-------------------------------------------------|

Pause until 'Girls' is yelled, and play the verse
[ Tab from: http://www.guitartabs.cc/tabs/b/beastie_boys/girls_tab_ver_2.html ]
Verse
|1-1----1-1-------------------0-1-1-----1-1-------------------0-1|
|---1-1-----1-2-3-3-----3-3---------1-1-----1-2-3-3-----3-3------|
|-------------------2-2-----2-----------------------2-2-----2----|
|----------------------------------------------------------------|
|----------------------------------------------------------------|
|----------------------------------------------------------------|

Play the verse throughout the song, and pause when it pauses on the CD.
Play this little part coming back from that pause, and then go straight to the verse.

|---1---|
|-1---1-|
|-------|
|-------|
|-------|
|-------|

To end, just play the verse, and instead of going to the 2nd and 3rd string notes, just
play the intro once.
Any problems/comments, my e-mail is RCT2head@hotmail.com
Comments