Beastie Boys - Futtermans Rule Chords & Tabs

 

Futtermans Rule Chords & Tabs

Beastie Boys Chords & Tabs

Version: 1 Type: Bass Tab 0 ratings
1 star 2 stars 3 stars 4 stars 5 stars
comments

Futtermans Rule Bass Tab

Song: "Futterman's Rule"
Band: The Beastie Boys
Album: Ill Communication
Bassist: Adam "MCA" Yauch

My favorite Beastie boys instrumental. Yauch plays it on his upright but it 
sounds really good on electric too.


Part I:

G:-----------8-----------------------------8----------
D:---------------4---6-7-8-------------------6-7-8-
A:------6-6---------------------------6-6------------
E:------------------------------------------------------

Part II:
[ Tab from: http://www.guitartabs.cc/tabs/b/beastie_boys/futtermans_rule_btab.html ]
G:---------8-10---8----------------------------------------------
D:----------------------10-8-10-8-10---4-4-4--6--6-6-7-8
A:--6-6-----------------------------------------------------------
E:------------------------------------------------------------------

Part III:

G:---4--4-4-4-4----6--6-6--6-6--8--8-8-8--11--11--11-11-11
D:--------------------------------------------------------------------------
A:--------------------------------------------------------------------------
E:--------------------------------------------------------------------------

Those are all the parts; it's easy to put them together. 

tabbed by: The Landlord

Comments