Beastie Boys - Fight For Your Right Solo Chords & Tabs

 

Fight For Your Right Solo Chords & Tabs

Beastie Boys Chords & Tabs

Version: 1 Type: Tab 1 rating
1 star 2 stars 3 stars 4 stars 5 stars
comments

Fight For Your Right Solo Tab


The Solo from Fight for Your Right

b = bend up
r = bend down
po = pull off
. = rest
~~ = vibrato
[ Tab from: http://www.guitartabs.cc/tabs/b/beastie_boys/fight_for_your_right_solo_tab.html ]
E--------------------------------------------------------------------------------------
B--20b22~~~~~---20b22~~~~~--20b22~~~~~-------------------------------------------------
G------------------------------------17--19--17--19b21~~~--.--19b21--r--p17------------
D--------------------------------------------------------------------------------------
A--------------------------------------------------------------------------------------
E--------------------------------------------------------------------------------------

E------------------------------------------20 p 19 p 17--------------------------------
B----------------------15b17--r--p13--.------------------20--17--20--20b22~~~~~--------
G----------14--12--14------------------------------------------------------------------
D--12h14-------------------------------------------------------------------------------
A--------------------------------------------------------------------------------------
E--------------------------------------------------------------------------------------
Comments