Beastie Boys - Brass Monkey Chords & Tabs

 

Brass Monkey Chords & Tabs

Beastie Boys Chords & Tabs

Version: 1 Type: Tab 0 ratings
1 star 2 stars 3 stars 4 stars 5 stars
comments

Brass Monkey Tab

This Is That Weird Part Tabbed For Guitar

Tuning: Standard

|-1-1-----1-1----0-1-1-----1-1----0-1-1-----1-1----0-1-|
|-----1-1-----1--------1-1-----1--------1-1-----1------|
|------------------------------------------------------| (Pause)
|------------------------------------------------------|
|------------------------------------------------------|
|------------------------------------------------------|
[ Tab from: http://www.guitartabs.cc/tabs/b/beastie_boys/brass_monkey_tab.html ]
|-1-1-----1-1---------------------0-1-1-----1-1--------------------|
|-----1-1-----1--2-3-3-----3-3----------1-1-----1--2-3-3-----3-3---|
|----------------------2-2-----2-------------------------2-2-----2-|
|------------------------------------------------------------------|
|------------------------------------------------------------------|
|------------------------------------------------------------------|

Well, Those Are The Most Important Parts, To Get The Timing Right, Listen To The Cd, Just Repeat Where Needed

Tabbed By: Swick
Comments