Beast - The Iron Curtain Chords & Tabs

 

The Iron Curtain Chords & Tabs

Beast Chords & Tabs

Version: 1 Type: Tab 0 ratings
1 star 2 stars 3 stars 4 stars 5 stars
comments

The Iron Curtain Tab

   
This is a German band, not many people know them, but they are awsome.

Half step down E
Intro
Em C G
------------------------------------------------------------------------|
-------------1---------------------1-------------------------3----------|
---------2------2--------------0-----0------------------------0---------|
-----2-------------2--------2------------2--------------0----- 0--------|
--0--------------------0 3-------------------3-------2----------- 2-----|
----------------------------------------------------3-------------------|
D Em
--------------2---------------------------------------------------------|
---------3-------3---------------------1 1------------------------------|
-----2--------------2---------------2--------2--------------------------|
-0-------------------------------2--------------2-----------------------|
------------------------------0-----------------------------------------|
C G
------------------------------------------------------------------------|
--------------11---------------------------------3 3--------------------|
----------0--------0-----------------------------------0----------------|
------2---------------2-------------------0--------------0--------------|
--3----------------------------------2----------------------------------|
---------------------------------3--------------------------------------|
D
---------------22-------------------------------------------------------|
----------3---------3---------------------------------------------------|
-----2------------------2-----------------------------------------------|
0-----------------------------------------------------------------------|
------------------------------------------------------------------------|
------------------------------------------------------------------------|
Verse:
Em C G D
Fill in verse bottom e string --3-3-2-0 then start chord progression over Em C G D


Chords transcribed to Octives

------------------------------------------------------------|
------------------------------------------------------------|
----5-------7-----------------------------------------------|
-2--5----5--7-----------------------------------------------|
-2--3----5--5-----------------------------------------------|
-0-------3--------------------------------------------------|

guitar 2 over intro (riff A)

--12----------15-----------------------17---17-17-17fbr-15~--------|
-------15-12-----15-12-15------------------------------------------|
------------------------------14-12--------------------------------|
-------------------------------------------------------------------|
-------------------------------------------------------------------|
-------------------------------------------------------------------|

first solo
(slow)

-17fb-19-19-19^(17)-15-17------------------------|
----------------------------17-15-17~------------|
-------------------------------------------------|
-------------------------------------------------|
-------------------------------------------------|
-------------------------------------------------|

-17fb-19-19-19^-17--//22fb-24-24-24^22fb-(24)--------|
-----------------------------------------------------|
-----------------------------------------------------|
-----------------------------------------------------|
-----------------------------------------------------|
-----------------------------------------------------|

-19-17------------------------------------|
----------20-17~-17----------15h17--------|
------------------------19-16-------------|
------------------------------------------|
------------------------------------------|
------------------------------------------|

-----------15h17fbr-15//--22fbr-19------------------------------|
--15h17---------------------------------22hbr-20-22hbrp20-------|
-------------------------------------------------------------21-|
----------------------------------------------------------------|
----------------------------------------------------------------|
----------------------------------------------------------------|

--12----------15-----------------------/17-15--------|
-------15-12-----15-12-15--------------------17------|
--------------------------------14-12----------------|
-----------------------------------------------------|
-----------------------------------------------------|
-----------------------------------------------------|

--/22fb-24r22-19-22fb-24-24-24r-------------------------------------|
----------------------------------22fb-24r-22-20--------------------|
--------------------------------------------------------------------|
--------------------------------------------------------------------|
--------------------------------------------------------------------|
--------------------------------------------------------------------|
			            faster
--------22--------22---------------------------------------------|
-22fb------22fb-----22fbr-20-20~-----------------------20h22b24--|
------------------------------------------21-21p19-21-21---------|
-----------------------------------------------------------------|
-----------------------------------------------------------------|
-----------------------------------------------------------------|

[ Tab from: http://www.guitartabs.cc/tabs/b/beast/the_iron_curtain_tab.html ]
--------------------------------------------------------22------|
-20----------------------10h22hb23-20-22-20-22-20-22fb----------|
-----21-21p19-21-21---------------------------------------------|
----------------------------------------------------------------|
----------------------------------------------------------------|
----------------------------------------------------------------|

--------22-----------------------------------------------------------|
-22fb------22fbr-20--------------------------------------------------|
-------------------------21~--21-19-21-19-21-19/-16-14-16-14-16-14---|
---------------------------------------------------------------------|
---------------------------------------------------------------------|
---------------------------------------------------------------------|

--------------------------------------------------|
--------------------------8h10hb-8----------------|
-12-11-12-11-9~-9-9-9p7h9----------9-9p7h9~~~-----|
--------------------------------------------------|
--------------------------------------------------|
--------------------------------------------------|

wait for a while
then..

-12h15-15h17-17h19-22fb~~---|
----------------------------|
----------------------------|
----------------------------|
----------------------------|
----------------------------|


wait a while and then do this twice as fast...

-3h5-5h7-7h10-10h12-12h15-15h17-17h19-22hbrfb~~-----|
----------------------------------------------------|
----------------------------------------------------|
----------------------------------------------------|
----------------------------------------------------|
----------------------------------------------------|

This is the really fast part!! (mood of song changes)

-3p0---3p0---3p0---3p0---3p5---3p5---3p5---3p5----|
-----0-----0-----0-----0-----3-----3-----3-----3--|
--------------------------------------------------|
--------------------------------------------------|
--------------------------------------------------|
--------------------------------------------------|

-7p5---7p5---7p5---7p5---3p0---3p0---3p0---3p0----|
-----5-----5-----5-----5-----0-----0-----0-----0--|
--------------------------------------------------|
--------------------------------------------------|
--------------------------------------------------|
--------------------------------------------------|

-15p12----15p12----15p12----15p12-----------------|
-------12-------12-------12-------12--------------|
--------------------------------------------------|
--------------------------------------------------|
--------------------------------------------------|
--------------------------------------------------|

-17p15----17p15----17p15----17p15-----------------|
-------15-------15-------15-------15--------------|
--------------------------------------------------|
--------------------------------------------------|
--------------------------------------------------|
--------------------------------------------------|

-19p17----19p17----19p17----19p17-----------------|
-------17-------17-------17-------17--------------|
--------------------------------------------------|
--------------------------------------------------|
--------------------------------------------------|
--------------------------------------------------|

-15p12----15p12----15p12----15p12-----------------|
-------12-------12-------12-------12--------------|
--------------------------------------------------|
--------------------------------------------------|
--------------------------------------------------|
--------------------------------------------------|

-12p9---12p9---12p9---12p9------------------------|
------9------9------9------9----------------------|
--------------------------------------------------|
--------------------------------------------------|
--------------------------------------------------|
--------------------------------------------------|

-12p10----12p10----12p10----12p10-----//22fb~~~~--|
-------10-------10-------10-------10--------------|
--------------------------------------------------|
--------------------------------------------------|
--------------------------------------------------|
--------------------------------------------------|
end of first solo.
Back to "Riff A"

then
--------------------------------------------------|
--------------------------7--7--7--7--------------|
-------5--5-x-x-----------7--7--7--7--------------|
-2--2--5--5-x-x-5--5-x-x--7--7--7--7--------------|
-2--2--3--3-x-x-5--5-x-x--5--5--5--5--------------|
-0--0-----------3--3-x-x--------------------------|



riff B

-12--------------------12-------------------------|
----15-12-----------------15-12-------------------|
----------14-12-14-12-----------14-12-------------|
--------------------------------------14-12-------|
--------------------------------------------------|
--------------------------------------------------|

(riff B)

-12h15p12-12----------------------------------------|
-------------12h15p12-12----------------------------|
-------------------------12h14hb-12-----------------|
------------------------------------14-12----12-14--|
------------------------------------------14--------|
----------------------------------------------------|

play riff B until song ends with drum solo.
Comments