Bear Vs Shark - Buses No Buses Chords & Tabs

 

Buses No Buses Chords & Tabs

Bear Vs Shark Chords & Tabs

Version: 2 Type: Tab 0 ratings
1 star 2 stars 3 stars 4 stars 5 stars
comments

Buses No Buses Tab

Bear Vs Shark - Buses No Buses


good song, anything from this band is amazing
during the sliding note on the G string near the end, another guitar plays in the
background, but it was to quiet for me to try tabbing


|-------------------------------------|
|---------------3p2----2p0------------|
|--------2---------------------2p0----|
|-------------------------------------|
|--2--2-----2-------2-----------------|
|-------------------------------------|
|
|-------------------------------------|
|---------------3p2----2p0------------|
|--------2---------------------2p0----|
|-------------------------------------|
|-----2-----2-------2------2----------|
|-------------------------------------|
|
|-------------------------------------|
|---------------3p2----2p0------------|
|--------2---------------------2p0----|x10
|-------------------------------------|
|--2--2-----2-------2------2----------|
|-------------------------------------|


|-----------------------------------------|
|-----------------------------------------|
|--1111111111-9-9-9-9-11111111------------|x4
|--1111111111-9-9-9-9-11111111-9-9-9-9-9--|
|--9-9-9-9-9--7-7-7-7-9-9-9-9--9-9-9-9-9--|
|------------------------------7-7-7-7-7--|


|--0--|
|--3--|
|--2--|x2
|--0--|
|-----|
|-----|


|--0---0---------|
|--0---0------3--|
|--------2p0--2--|x2
|--2---2------0--|
|----------------|
|----------------|


|-------------------------------------|
|---------------3p2----2p0------------|
|--------2---------------------2p0----|
|-------------------------------------|
|--2--2-----2-------2------2----------|
|-------------------------------------|
|
|-------------------------------------|
|-------------------------------------|
|-------------------------------------|
|-------------------------------------|
|--2-2-2-2-2-2-2-2-2-2-2-2-2-2-2-2----|
|-------------------------------------|

[ Tab from: http://www.guitartabs.cc/tabs/b/bear_vs_shark/buses_no_buses_tab_ver_2.html ]
|-----------------------------------------|
|-----------------------------------------|
|--1111111111-9-9-9-9-11111111------------|x4
|--1111111111-9-9-9-9-11111111-9-9-9-9-9--|
|--9-9-9-9-9--7-7-7-7-9-9-9-9--9-9-9-9-9--|
|------------------------------7-7-7-7-7--|


|---------------------|
|---------------------|
|--11---/9---/7---/6--|x5
|---------------------|
|---------------------|
|---------------------|


|---------------------|
|--3-3-3--------------|
|--2-2-2--------------|x4
|--0-0-0-------0-0-0--|
|--------------2-2-2--|
|--------------3-3-3--|


|---------------------------------------|
|---------------------------------------|
|--1111111111-9-9-9-9-11111111----------|
|--1111111111-9-9-9-9-11111111-9-9-9-9--|
|--9-9-9-9-9--7-7-7-7-9-9-9-9--9-9-9-9--|
|------------------------------7-7-7-7--|
|
|-----------------------|
|-----------------------|
|-----------------------|
|--9-9-9-9-9-9-9-9-9-9--|
|--9-9-9-9-9-9-9-9-9-9--|
|--7-7-7-7-7-7-7-7-7-7--|


|-----------------------------------------|
|-----------------------------------------|
|--1111111111-9-9-9-9-11111111------------|x5
|--1111111111-9-9-9-9-11111111-9-9-9-9-9--|
|--9-9-9-9-9--7-7-7-7-9-9-9-9--9-9-9-9-9--|
|------------------------------7-7-7-7-7--|


|-------5b--------------------5b-------------|
|--7--5-----5-/2-2--3----7--5-----5-/2-2--3--|
|--------------------------------------------|
|--------------------------------------------|
|--------------------------------------------|
|--------------------------------------------|

|------------------------------------------------------------------|
|--777775555-------------------777775555--------------------77777--|
|-----------7777-6666677774444----------7777-66666777744444--------|
|------------------------------------------------------------------|
|------------------------------------------------------------------|
|------------------------------------------------------------------|
Comments