Bear Vs Shark - Buses No Buses Chords & Tabs

 

Buses No Buses Chords & Tabs

Bear Vs Shark Chords & Tabs

Version: 1 Type: Tab 0 ratings
1 star 2 stars 3 stars 4 stars 5 stars
comments

Buses No Buses Tab

   
Bear vs Shark, www.bearvsshark.com, USA, Equal Vision Records inc. 2003,
 
Buses/No Buses
Bear vs Shark
Album: Right now, you're in the best of hands. And if something isn't quite right,
your doctor will know in a hurry.
By dantansy
Standard tuning

/=slide
~=sustain note
/\=strum up
\/=strum down
*=delay
p=pull off

Reminder: These are only the notes. I haven't the patience to count them out. You'll be
able to figure out the rhythm. There are 2 guitars in this song. I'm note sure which one
I'm tabbing; chances are it's a bit of both. I think it's right. That is... I hope it's
right. Have fun with it. It's a great song.

Intro
|-----------------------------------|
|---------------3----2p0------------|
|--------2-------------------2p0----|
|-----------------------------------|
|--2--2-----2----2-------2----------|
|-----------------------------------|

Chorus
|-----------------------
|-----------------------
|--11--9--11------------
|--11--9--11--9---------
|--9---7--9---9---------
|-------------7---------

part a
|------------------
|------------------
|--7-/\---7-\/-----
|--7-/\---7-\/-----
|--5-/\---5-\/-----
|------------------

part b
|--------------------------------
|-------------------------*------          
|--9--9---7~--9--9-----7~--------
|--9--9---7~--9--9-----7~--------
|--7--7---5~--7--7-----5~--------
|-------------------------*------
[ Tab from: http://www.guitartabs.cc/tabs/b/bear_vs_shark/buses_no_buses_tab.html ]
part c
|--------------------------------/-------------
|--------2---3---2p0----2~------/--------------
|------------------------------/---------------
|-----------------------------/----------------
|--2-2---2---2-------2-------/---2-2-2-2-2-2-2- etc 
|---------------------------/--palm-muted------

part d
|-----------------
|-----------------
|--11-/9-/7-/6----
|-----------------
|-----------------
|-----------------

part e
|----------------
|----------------
|--7-7-----------
|--7-7---5-5-----
|--5-5---5-5-----
|---------3-3----

part f
|-----------------------
|-----------------------
|--11--9--11------------
|--11--9--11--9---------
|--9---7--9----9--------
|---------------7-------

Solo
|---------5b----------------5b--------------
|--7--5-----5-/2--3---7--5----5-/2--3-------
|-------------------------------------------
|-------------------------------------------
|-------------------------------------------
|-------------------------------------------

|------------------------------------------------
|--7--5---------------7--5----------------7------
|--------7--6--7--4--------7--6--7--4------------
|------------------------------------------------
|------------------------------------------------
|------------------------------------------------

order:
intro
chorus x4
part a x1
part b x1
part c x1
chorusx4
part d x5 on the sixth time play the F# then go to part e 
part e x4
part f x2
chorusx4  (Chorus plays twice and the solo starts to play over it. The chorus plays out 4 times)
solo  x1

~dantansy
Comments