Beady Eye - The Roller Chords & Tabs

 

The Roller Chords & Tabs

Beady Eye Chords & Tabs

Version: 3 Type: Tab 0 ratings
1 star 2 stars 3 stars 4 stars 5 stars
comments

The Roller Tab

   
-------------------------------------------------------------------------------
			     THE ROLLER Ė Beady Eye
-------------------------------------------------------------------------------
Tabbed by: Stephen M
Email: the_Shteve@hotmail.com

Tuning: Standard

Chords Used:
       EADGBe
   A  (x02220)
   E  (022100)
  F#m (244222)
   D  (xx0232)
   D2 (x57775)
   B  (x24442)


Verse 1:
A                 E          F#m
You didnít know what to say
A                 E          F#m
It all came at you today
A                 E          F#m
Canít get out your own way
      A       E           F#m
Well hold on, hold on, hold on.


A       		E           F#m    E
Iím hiding out in the sun
A                   E           F#m   E
Iím getting everyone done
A              E           F#m    E
Just me hating no one
  A              E           F#m
Here I come, here I come, here I come


Chorus:
 			D	E
Just call me the roller
			D	E
Iíll squeeze and unfold ya
		D	E
Call me the roller
               F#m E F#m E F#m E F#m F#m E
I just go to show ya


Verse 2:
A                 	E         		 F#m
So you been crawling through a maze
A               E        F#m
An alcohol lemon haze
A                 	E         	 F#m
Iíve been watching you for days
A         E       	 F#m    E
Youíve been outta sight alright, alright


Pre-chorus:
D			E			F#m	                 E
Iíll take you somewhere you never knew youíd be
D			E			F#m	               E
Iíll give you something you never knew youíd feel
D		E			F#m
The only thing is, everything is real
A	E	F#m
tonight, tonight, tonight

[ Tab from: http://www.guitartabs.cc/tabs/b/beady_eye/the_roller_tab_ver_3.html ]
Chorus:
			D	E
Just call me the roller
			D	E
Iíll squeeze and unfold ya
		D	E
Call me the roller
              F#m E F#m E F#m E F#m
I just go to show ya
			D     E
Just call me the roller
			D	E
Iíll come blow you over
		D	E
Call me the roller
                    F#m E F#m E F#m E F#m
Iím pleased that I know ya

Solo:
e------------------------------------------------------|
B------------------------------------------------------|
Gó13b14-13-11-9----------------------------------------|
D---------------9b11-11r9-7----------------------------|
A---------------------------9--------------------------|
E------------------------------------------------------|

e-------------------------------------------------------|
B-------------------------------------------------------|
Gó13b14-13-11-9-----------------------------------------|
D---------------9b11-11r9-7-----------------------------|
A---------------------------9---------------------------|
E-------------------------------------------------------|

e------------------------------------------------------|
B------------------------------------------------------|
Gó13b14-13-11-9----------------------------------------|
D---------------9b11-11r9-7----------------------------|
A---------------------------9b11-9---------------------|
E------------------------------------------------------|


Bridge:
D2 - B
D2 - B
A  - B
D2 - B
A ----- B


Pre-chorus:
D			E			F#m
Iíll take you somewhere you never knew youíd been
D			E			F#m
Iíll give you something you never knew youíd feel
D		E			F#m
The only thing is, everything is real
D	E	F#m
tonight, tonight, tonight


Chorus: (Alternate Chords)
			D  E  F#m
Just call me the roller
			D  E  F#m
Iíll squeeze and unfold ya
			D  E  F#m
Call me the roller
			D  E  F#m
I just go to show ya

D		E	F#m
  The roller the roller the roller the roller
D		E	F#m
  The roller the roller the roller the roller
D		E	F#m
  The roller the roller the roller the roller
D		E	F#m
  The roller the rolle-e-er


E  - F#m
E  - F#m
E  - F#m
E  -------- F#m


| *  second guitar part
| /  slide up
| \  slide down
| h  hammer-on
| p  pull-off
| ~  vibrato
| +  harmonic
| x  Mute note
===============================================================================
Comments