Beach Fossils - Youth Chords & Tabs

 

Youth Chords & Tabs

Beach Fossils Chords & Tabs

Version: 1 Type: Bass Tab

Youth Bass Tab

-----------------------4-4-4-3-3-3------------------|
---3-3-3-3-5-5---------------------4-4-3-3-3-3-3\---|
---------------5-5-5-5------------------------------|
----------------------------------------------------|   X7
[ Tab from: http://www.guitartabs.cc/tabs/b/beach_fossils/youth_btab.html ]
breks/solo
-----------4-3-------------4-3--------|
---------------4-3-3-3-3-3-----3-4----|
--------------------------------------|
-0-0-0-0-0----------------------------|

any ideas?


http://lyrics.wikia.com/Beach_Fossils:Beach_Fossils_(2010)