Beach Boys - Wipe Out Chords & Tabs

 

Wipe Out Chords & Tabs

Beach Boys Chords & Tabs

Version: 9 Type: Tab 0 ratings
1 star 2 stars 3 stars 4 stars 5 stars
comments

Wipe Out Tab

   
WIPEOUT - Beach Boys
-----------------------------------------------------------------
Tabbed by: Britt
Email: bthai22@sbcglobal.net

This song is sweeeeeeet. 
Otay this tab is probably the most accurate tab you will ever see. I've seen some
other correct tabs also but I just wanted to put this one in because it's played
a string higher than the other one (D----8-9-10-10-10-8----) 
                                   (A-10----------------10-) Anyway,
I don't care which way you play it, just wanted to add this one...

Tuning: Standard

   4x                    2x
e|----------------------|---------------------| 
B|----------------------|-----4-5-6-6-6-4-----|  
G|.----3-4-5-5-5-3-----.|.--5-------------5--.|             
D|.--5-------------5---.|.-------------------.|              
A|----------------------|---------------------|             
E|----------------------|---------------------|            

   2x                   1x
e|---------------------|-------------------|
B|---------------------|----6-7-8-8-8-6----|
G|.----3-4-5-5-5-3----.|--7-------------7--|
D|.--5-------------5--.|-------------------|
A|---------------------|-------------------|     
E|---------------------|-------------------|  PART A
[ Tab from: http://www.guitartabs.cc/tabs/b/beach_boys/wipe_out_tab_ver_9.html ]
  1x (play this part the first time through)
e|---------------------------------------------------------------|
B|-8-6-6-6-4-----------------------------------------------------|
G|-----------5-3-3-3-5-5-5-3---5-3-------------------------------|
D|---------------------------5-----5-5-5-5-5---------------------|
A|---------------------------------------------------------------|
E|---------------------------------------------------------------|  PART B
  
 1x (play this part the second time through)
e|----------------------------------------------|
B|-8-6-6-6-4------------------------------------|
G|-----------5---3-4-5-5-5-3---3-5--------------|
D|-------------5-------------5-----5-5-5-5-5----|
A|----------------------------------------------|
E|----------------------------------------------|  PART C


e|--8----8----1----8----3----1----8----|
B|--8----8----1----8----3----1----8----|
G|--9----9----2----9----4----2----9----|
D|--10---10---3----10---5----3----10---|
A|--10---10---3----10---5----3----10---|
E|--8----9----2----9----3----1----8----|  PART D
                        
After this, it repeats.

Then SOLO! I think it's pretty accurate, if not perfect

E|--8-8-8----8-11-8-8-8-7-8-8-8-7-8-7-8-7-8-7-8/-1-1----1-1-----|
B|--8-8-8-11-8----8-8-8-7-8-8-8-7-8-7-8-7-8-7-8/-1-1--1-1-1-----|
G|--------------------------------------------------------------|
D|--------------------------------------------------------------|
A|--------------------------------------------------------------|
E|--------------------------------------------------------------|

e|--1-1-1---1-8-8-8----8-8-8-8-8----8-3-3-3---3-3-1-1-1---1-1----|
B|--1-1-1-1-1-8-8-8-11-8-8-8-8-8-11-8-3-3-3-6-3-3-1-1-1-3-1-1----|
G|---------------------------------------------------------------|
D|---------------------------------------------------------------|
A|---------------------------------------------------------------|
E|---------------------------------------------------------------|

e|--8-8-8----8-8-----------------------------------------------------|
B|--8-8-8-11-8-8-----------------------------------------------------|
G|----------------8-10-8-10-8-8-8--(goes right into PART D, no rest)-|
D|-------------------------------------------------------------------|
A|-------------------------------------------------------------------|
E|---------------------------------------------------------------|  PART E

Order: 
PART A
PART B
PART D
PART A
PART C
PART D
PART E (SOLO)
PART D
FADE OUT WITH PARTS A,B/C

~Brittany
Comments