Beach Boys - Wipe Out Chords & Tabs

 

Wipe Out Chords & Tabs

Beach Boys Chords & Tabs

Version: 8 Type: Tab 0 ratings
1 star 2 stars 3 stars 4 stars 5 stars
comments

Wipe Out Tab

e --------------------------------------------------------------------|
b ----1--2--3-3-3---1------1--2---3-3-3---1-------1--2--3-3---1-------|
g -2------------------2-2--------------------2-2-----------------2-2--|
d --------------------------------------------------------------------|
a --------------------------------------------------------------------|
E --------------------------------------------------------------------|
[ Tab from: http://www.guitartabs.cc/tabs/b/beach_boys/wipe_out_tab_ver_8.html ]
e -1--2--3-3-3---1------1--2--3-3-3---1--------------------|
b -----------------3-3------------------3-3----1--2--3-3-3-|
g -------------------------------------------2-------------|
d ---------------------------------------------------------|
a ---------------------------------------------------------|
E ---------------------------------------------------------|

e -----------------------------|
b -1------1---3----------------|
g ---2-2--------2-2-2-2-2-2--3-|
d -----------------------------|
a -----------------------------|
E -----------------------------|
Comments