Beach Boys - Wipe Out Chords & Tabs

 

Wipe Out Chords & Tabs

Beach Boys Chords & Tabs

Version: 6 Type: Tab 0 ratings
1 star 2 stars 3 stars 4 stars 5 stars
comments

Wipe Out Tab

This tab sounds ok with a Bass also.
You might need to listen to the song a few times to get a hang of Line 4.


Line 1
e|------------------------------------|
B|----0-3-4-5-5-5-3-0-0---------------|
G|------------------------------------|
D|------------------------------------|   x4
A|------------------------------------|
E|------------------------------------|
[ Tab from: http://www.guitartabs.cc/tabs/b/beach_boys/wipe_out_tab_ver_6.html ]
Line 2
e|----0-3-4-5-5-5-3-0-0---------------|
B|------------------------------------|
G|------------------------------------|
D|------------------------------------|   x2
A|------------------------------------|
E|------------------------------------|

Line 3
e|------------------------------------|
B|----0-3-4-5-5-5-3-0-0---------------|
G|------------------------------------|
D|------------------------------------|   x2
A|------------------------------------|
E|------------------------------------|

Line 4
Pre-Chorus
e|----0-7-8-9--9-9-9-7-5-3-5-6-7--7-7-7-5-0---------|
B|--------------------------------------------------|
G|--------------------------------------------------|
D|--------------------------------------------------|  x1
A|--------------------------------------------------|
E|--------------------------------------------------|

DRUM SOLO!
Comments